Oops, an error
Loading. Please wait.

Kill Tomorrow Tab

version 5
version 5

Whole song

Interactive

694 views 3 this week
no commentswrite comment
1 2 3 4 5
please rate
add to favorites
launch autoscroll
font size
0
reset
how to read this tab
guitar tuner
Autoscroll
slow
fast
+/-
esc
set tempo
stop
Help us to improve Ultimate-Guitar.com Take our survey!
×
Author
Difficulty
Andrew Zara 3,575
novice
Gtr I (B E A D G B E) - 'Bronson'
Gtr II (B E A D G B E) - 'Gravy'


   Intro
    Q=142
   4/4
    Gtrs I, II
                                                              |-----6-----|
     E Q   E Q   E E   +E   E Q  E E Q     E Q   E Q   E E   +Q  Q Q  Q Q Q  4x
||-------------------|------------------|------------------|-----------------||
||-------------------|------------------|------------------|-----------------||
||o------------------|------------------|------------------|----------------o||
||-------------------|------------------|------------------|-----------------||
||o-12----12----12---|-----12-----------|-12----12----12---|----------------o||
||--12----12----12---|-----12-----------|-12----12----12---|-----7-9-10-9-7--||
||--10-0--10-0--10-0-|-(0)-10-0--0------|-10-0--10-0--10-0-|-(0)-5-7--8-7-5--||


   Verse
    PM--------------------------------------------------------------|
    S S S S S S S S S S S S S S S S   S S S S S S S S S S S S S S S S   3x
||----------------------------------|-----------------------------------||
||----------------------------------|-----------------------------------||
||o---------------------------------|----------------------------------o||
||----------------------------------|-----------------------------------||
||o---------------------------------|----------------------------------o||
||----------------------------------|-----------------------------------||
||--0-0-0-0-0-0-0-0-0-0-0-0-0-0-0-0-|-0-0-0-0-0-0-0-0-0-0-0-0-0-0-0-0---||


  PM----------------------------------|
                                    |-----6------|
  S S S S S S S S S S S S S S S S   E E Q Q  Q Q Q
|---------------------------------|----------------|
|---------------------------------|----------------|
|---------------------------------|----------------|
|---------------------------------|----------------|
|---------------------------------|----------------|
|---------------------------------|-----7-9-10-9-7-|
|-0-0-0-0-0-0-0-0-0-0-0-0-0-0-0-0-|-0-0-5-7--8-7-5-|


    PM------------------------------------|
                                        |-----6------|
    S S S S S S S S S S S S S S S S  7x E E Q Q  Q Q Q
||-----------------------------------||----------------|
||-----------------------------------||----------------|
||o---------------------------------o||----------------|
||-----------------------------------||----------------|
||o---------------------------------o||----------------|
||-----------------------------------||-----7-9-10-9-7-|
||--0-0---0-0---0-0-0-0---0-0---0-0--||-0-0-5-7--8-7-5-|


   Chorus
    W          +W           W          +W
||-----------|------------|----------|--------|
||-----------|------------|----------|--------|
||o----------|------------|----------|--------|
||-----------|------------|-7--------|-(7)----|
||o-2--------|-(2)--------|-7--------|-(7)----|
||--2--------|-(2)--------|-5--------|-(5)----|
||--0--------|-(0)--------|----------|--------|


  W          +W            H.      Q    +W
|----------|------------|-------------|---------||
|----------|------------|-------------|---------||
|----------|------------|-------------|--------o||
|----------|------------|-------------|---------||
|-2--------|-(2)--------|-10-------7--|-(7)----o||
|-2--------|-(2)--------|-10-------7--|-(7)-----||
|-0--------|-(0)--------|--8-------5--|-(5)-----||


 Pre-Verse
  q  H.        Wx2
|------------|--------|
|------------|--------|
|------------|--------|
|------------|--------|
|-2----------|--------|
|-2----------|--------|
|-0----------|--------|


                   PM----------------------------|
    |---6----|
  Q Q Q  Q Q Q     S S S S S S S S S S S S S S S S  3x
|--------------||-----------------------------------||
|--------------||-----------------------------------||
|--------------||o---------------------------------o||
|--------------||-----------------------------------||
|--------------||o---------------------------------o||
|---7-9-10-9-7-||-----------------------------------||
|---5-7--8-7-5-||--0-0-0-0-0-0-0-0-0-0-0-0-0-0-0-0--||


  PM|
  |-----6------|
  E E Q Q  Q Q Q      E Q   E Q   E E
|----------------||-------------------|
|----------------||-------------------|
|----------------||o------------------|
|----------------||-------------------|
|----------------||o-12----12----12---|
|-----7-9-10-9-7-||--12----12----12---|
|-0-0-5-7--8-7-5-||--10-0--10-0--10-0-|


                                         |-----6-----|
  +E   E Q  E E Q     E Q   E Q   E E   +Q  Q Q  Q Q Q
|------------------|------------------|-----------------||
|------------------|------------------|-----------------||
|------------------|------------------|----------------o||
|------------------|------------------|-----------------||
|-----12-----------|-12----12----12---|----------------o||
|-----12-----------|-12----12----12---|-----7-9-10-9-7--||
|-(0)-10-0--0------|-10-0--10-0--10-0-|-(0)-5-7--8-7-5--||


   Verse
    PM--------------------------------------------------------------|
    S S S S S S S S S S S S S S S S   S S S S S S S S S S S S S S S S   3x
||----------------------------------|-----------------------------------||
||----------------------------------|-----------------------------------||
||o---------------------------------|----------------------------------o||
||----------------------------------|-----------------------------------||
||o---------------------------------|----------------------------------o||
||----------------------------------|-----------------------------------||
||--0-0-0-0-0-0-0-0-0-0-0-0-0-0-0-0-|-0-0-0-0-0-0-0-0-0-0-0-0-0-0-0-0---||


  PM----------------------------------|
                                    |-----6------|
  S S S S S S S S S S S S S S S S   E E Q Q  Q Q Q
|---------------------------------|----------------|
|---------------------------------|----------------|
|---------------------------------|----------------|
|---------------------------------|----------------|
|---------------------------------|----------------|
|---------------------------------|-----7-9-10-9-7-|
|-0-0-0-0-0-0-0-0-0-0-0-0-0-0-0-0-|-0-0-5-7--8-7-5-|


    PM------------------------------------|
                                        |-----6------|
    S S S S S S S S S S S S S S S S  7x E E Q Q  Q Q Q
||-----------------------------------||----------------|
||-----------------------------------||----------------|
||o---------------------------------o||----------------|
||-----------------------------------||----------------|
||o---------------------------------o||----------------|
||-----------------------------------||-----7-9-10-9-7-|
||--0-0---0-0---0-0-0-0---0-0---0-0--||-0-0-5-7--8-7-5-|


   Chorus
    W          +W           W          +W
||-----------|------------|----------|--------|
||-----------|------------|----------|--------|
||o----------|------------|----------|--------|
||-----------|------------|-7--------|-(7)----|
||o-2--------|-(2)--------|-7--------|-(7)----|
||--2--------|-(2)--------|-5--------|-(5)----|
||--0--------|-(0)--------|----------|--------|


  W          +W            H.      Q    +W
|----------|------------|-------------|---------||
|----------|------------|-------------|---------||
|----------|------------|-------------|--------o||
|----------|------------|-------------|---------||
|-2--------|-(2)--------|-10-------7--|-(7)----o||
|-2--------|-(2)--------|-10-------7--|-(7)-----||
|-0--------|-(0)--------|--8-------5--|-(5)-----||


   Bridge
                                      PM--|
                                      |-3-|
    Q  +E  Q  +E   Q     +E   Q   +E  Q Q Q
||--------------------|---------------------|
||--------------------|---------------------|
||o-------------------|---------------------|
||--------------------|---------------------|
||o-8--(8)-7--(7)-11--|-(11)-10--(10)-------|
||--8--(8)-7--(7)-11--|-(11)-10--(10)-------|
||--6--(6)-5--(5)--9--|--(9)--8---(8)-0-0-0-|


                                    PM----|
  Q  +E  Q  +E   Q     +E   Q   +E  E E E E  3x
|-------------------|------------------------||
|-------------------|------------------------||
|-------------------|-----------------------o||
|-------------------|------------------------||
|-8--(8)-7--(7)-11--|-(11)-10--(10)---------o||
|-8--(8)-7--(7)-11--|-(11)-10--(10)----------||
|-6--(6)-5--(5)--9--|--(9)--8---(8)-0-0-0-0--||


                                    PM--|
                                    |-3-|    |-----6-----|    |---6----|
  Q  +E  Q  +E   Q     +E   Q   +E  Q Q Q    Q Q  Q Q  Q Q    Q Q  Q Q H
|-------------------|---------------------|----------------|--------------|
|-------------------|---------------------|----------------|--------------|
|-------------------|---------------------|----------------|--------------|
|-------------------|---------------------|----------------|--------------|
|-8--(8)-7--(7)-11--|-(11)-10--(10)-------|-12---12---12---|-12---12------|
|-8--(8)-7--(7)-11--|-(11)-10--(10)-------|-12---12---12---|-12---12------|
|-6--(6)-5--(5)--9--|--(9)--8---(8)-0-0-0-|-10-0-10-0-10-0-|-10-0-10-0----|


                      |-----6-----|
   E Q   E Q   E E   +Q  Q Q  Q Q Q    E Q   E Q   E E
|------------------|----------------|------------------|
|------------------|----------------|------------------|
|------------------|----------------|------------------|
|------------------|----------------|------------------|
|-12----12----12---|----------------|-12----12----12---|
|-12----12----12---|-----7-9-10-9-7-|-12----12----12---|
|-10-0--10-0--10-0-|-(0)-5-7--8-7-5-|-10-0--10-0--10-0-|


                                         |-----6-----|
  +E   E Q  E E Q     E Q   E Q   E E   +Q  Q Q  Q Q Q
|------------------|------------------|-----------------|
|------------------|------------------|-----------------|
|------------------|------------------|-----------------|
|------------------|------------------|-----------------|
|-----12-----------|-12----12----12---|-----------------|
|-----12-----------|-12----12----12---|-----7-9-10-9-7--|
|-(0)-10-0--0------|-10-0--10-0--10-0-|-(0)-5-7--8-7-5--|


   Verse
    PM--------------------------------------------------------------|
    S S S S S S S S S S S S S S S S   S S S S S S S S S S S S S S S S   3x
||----------------------------------|-----------------------------------||
||----------------------------------|-----------------------------------||
||o---------------------------------|----------------------------------o||
||----------------------------------|-----------------------------------||
||o---------------------------------|----------------------------------o||
||----------------------------------|-----------------------------------||
||--0-0-0-0-0-0-0-0-0-0-0-0-0-0-0-0-|-0-0-0-0-0-0-0-0-0-0-0-0-0-0-0-0---||


  PM----------------------------------|
                                    |-----6------|
  S S S S S S S S S S S S S S S S   E E Q Q  Q Q Q
|---------------------------------|----------------|
|---------------------------------|----------------|
|---------------------------------|----------------|
|---------------------------------|----------------|
|---------------------------------|----------------|
|---------------------------------|-----7-9-10-9-7-|
|-0-0-0-0-0-0-0-0-0-0-0-0-0-0-0-0-|-0-0-5-7--8-7-5-|


    PM------------------------------------|
                                        |-----6------|
    S S S S S S S S S S S S S S S S  7x E E Q Q  Q Q Q
||-----------------------------------||----------------*|
||-----------------------------------||----------------*|
||o---------------------------------o||----------------*|
||-----------------------------------||----------------*|
||o---------------------------------o||----------------*|
||-----------------------------------||-----7-9-10-9-7-*|
||--0-0---0-0---0-0-0-0---0-0---0-0--||-0-0-5-7--8-7-5-*|




--------------------------------------------------------------------------------


Duration Legend
---------------
W - whole; H - half; Q - quarter; E - 8th; S - 16th; T - 32nd; X - 64th; a - acciaccatura
+ - note tied to previous; . - note dotted; .. - note double dotted
Uncapitalized letters represent notes that are staccato (1/2 duration)
Irregular groupings are notated above the duration line
Duration letters will always appear directly above the note/fret number it represents the
duration for.  Duration letters with no fret number below them represent rests.  Multi-
bar rests are notated in the form Wxn, where n is the number of bars to rest for.  Low
melody durations appear below the staff

Tablature Legend
----------------
 h   - hammer-on
 p   - pull-off
 b   - bend
 pb  - pre-bend
 r   - bend release (if no number after the r, then release immediately)
 /\  - slide into or out of (from/to "nowhere")
 s   - legato slide
 S   - shift slide
 - natural harmonic
[n]  - artificial harmonic
n(n) - tapped harmonic
 ~   - vibrato
 tr  - trill
 T   - tap
 TP  - trem. picking
 PM  - palm muting
\n/  - tremolo bar dip; n = amount to dip
 \n  - tremolo bar down
 n/  - tremolo bar up
/n\  - tremolo bar inverted dip
 =   - hold bend; also acts as connecting device for hammers/pulls
 <> - volume swell (louder/softer)
 x   - on rhythm slash represents muted slash
 o   - on rhythm slash represents single note slash

Misc Legend
-----------
 |  - bar
||  - double bar
||o - repeat start
o|| - repeat end
*|  - double bar (ending)
 :  - bar (freetime)
 $  - Segno
 &  - Coda
Tempo markers -  = BPM(8/16=s8/s16), where s8 = swing 8ths, s16 = swing 16ths

Suggest correction new What's this?
You can suggest a correction to this tab. Community and Mods will review your correction and vote to approve or reject it.
comments
We did not receive enough feedback on this tab! Please rate:
print report bad tab
1 2 3 4 5
guest
You may want to rate the tab now too:
select rating
Please do not post tabs as comments. Select "correction" instead!