Oops, an error
Loading. Please wait.

Mother Machine Gun Bass Tab

version 2
version 2

Whole song

Interactive

1,415 views 1 this week
no commentswrite comment
1 2 3 4 5
please rate
add to favorites
launch autoscroll
font size
0
reset
guitar tuner
Autoscroll
slow
fast
+/-
esc
set tempo
stop
Help us to improve Ultimate-Guitar.com Take our survey!
×
Author
Intro - 6/8 time, tempo around 115, standard 5-string tuning.

G---------3-1------|------------------|------------------|------------------|
D--1-11-------4----|-----------1-3----|------------------|------------------|
A------------------|--2-22------------|--1-11-1-1-1------|--2-2-2-1-1-1-----|
E------------------|------------------|------------------|------------------|
B------------------|---------3--------|------------------|------------------|

G---------3-1------|-----------1-3----|------------------|------------------|
D--1-11-------4----|---------4--------|------------------|------------------|
A------------------|--2-22------------|--1-11-1-1-1------|--1~~~~~~~~~~~~~~~|
E------------------|------------------|------------------|------------------|
B------------------|------------------|------------------|------------------| x2 
                                                                                  
|------------------|                                                              
|------------------|
|--1~~~~-----------| <------2nd ending
|------------------|
|---------000000---|

Verse #1

    (16th rest)                              2nd time through
G------------------|------------------|    |------------------|------------------|
D------------------|------------------|    |------------------|------------------|
A------------------|------------------|    |------------------|------------------|
E--11----11--------|--11----11111-----|    |--11----11--------|------------------|
B----000---000-----|----000------0----| x5 |----0000--0000----|--000000111111----|

Chorus

G------------------|------------------|------------------|------------------|
D--1~~~~~~~~~~~~~~~|------------------|------------------|-------0~~~~~~~~~~|
A------------------|--3~~~~~~~~~~~~~~~|--2~~~~~~~~~~~~~~~|--1~~~~-----------|
E------------------|------------------|------------------|------------------|
B------------------|------------------|------------------|------------------|

G------------------|------------------|------------------|------------------|
D------------------|------------------|------------------|------------------|
A---------1--------|--2-22-------1----|--1-11-1-1-1------|--1~~~~~~~~~~~~~~~|
E-----------4-2----|---------2-4------|------------------|------------------|
B--4-44------------|------------------|------------------|------------------|

Verse #1 x10
Chorus x2
::rest::

Bridge

G------------------|------------------|
D------------------|------------------|
A------------------|--------11--------|
E--11----11--------|--11--------------|
B----0000--0000----|----0000--0043----| x4

Chorus x2

Outro

G------------------|------------------|
D------------------|------------------|
A------------------|------------------|
E--11X----11X------|--11X-------------| X = Choke
B------------------|------------------|

And that's it! Note: the "11" are not elevens, they are two fast ones. Enjoy.
Suggest correction
Give kudos to tab author, rate the tab!
1 2 3 4 5
comments
print report bad tab
guest
You may want to rate the tab now too:
select rating
Please do not post tabs as comments. Select "correction" instead!