Oops, an error
Loading. Please wait.

Our Apologies Tab

version 1
version 1

Whole song

Interactive

1,346 views 3 this week
no commentswrite comment
1 2 3 4 5
excellent!
x 2
add to favorites
launch autoscroll
font size
0
reset
how to read this tab
guitar tuner
Tab Pro tools
  • play this tab
  • loop segment
  • change instrument
  • show fretboard
  • metronome
Autoscroll
slow
fast
+/-
esc
set tempo
stop
Contributor
Difficulty
Tuning
novice
D# G# C# F# A# D#
----------------------------------------------------------------------------------------
|                               Mushroomhead - Our Apologies                           |
|                         Album: Righteous & The Butterfly (2014)                      |
|                                   Tabbed by Godspeedy                                |
----------------------------------------------------------------------------------------

               For questions and corrections feel free to send me a message:
                           https://www.facebook.com/Godspeedy14
                           
        Also, check out my Youtube channel: http://www.youtube.com/user/Godspeedy14

                   Playthrough: https://www.youtube.com/watch?v=QbI58pa0iuE
 
                              Tuning: 7 string A#D#G#C#F#A#D# 

Riff 1 (w/ dist and phaser) Guitar 1:

D#|-------------------------|-------------------------|
A#|-------------------------|-------------------------|
F#|-------------------------|-------------------------|
C#|-------------------------|-------------------------|
G#|-------------------------|-------------------------|
D#|-------------------------|-------------------------|
A#|-0--10s12--0-12s15-0--15-|-0--10s12--0-12s15-0--15-|

D#|-------------------------|-------------------------|
A#|-------------------------|-------------------------|
F#|-------------------------|-------------------------|
C#|-------------------------|-------------------------|
G#|-------------------------|-------------------------|
D#|-------------------------|-------------------------|
A#|-0--10s12--0-12s15-0--15s|-17-0--17s15-0--15-15-12-|

Guitar 2 (w/ dist):

D#|---------------------------------------------------|
A#|---------------------------------------------------|
F#|---------------------------------------------------|
C#|-12----------9----------12---------12----9---------|
G#|-x-----------x----------x----------x-----x---------|
D#|-10----------7----------10---------10----7---------|
A#|---------------------------------------------------|

Riff 2 (w/ dist) guitars are doubled:

D#|-------------------------|-------------------------|
A#|-------------------------|-------------------------|
F#|-------------------------|-------------------------|
C#|-------------------------|-------------------------|
G#|-------------------------|-------------------------|
D#|-------------------------|-------------------------|
A#|-0--10s12-0--12s15-0--15s|-17-0--17s15-0--15-15-12-|

Riff 3 (w/ dist) guitars are doubled:

D#|-----------------------------------------------|--------------------------------|
A#|-----------------------------------------------|--------------------------------|
F#|-----------------------------------------------|--------------------------------|
C#|-----------------------------------------------|--------------------------------|
G#|-----------------------------------------------|--------------------------------|
D#|-2--2--2--2--2--2--2--2--2--2---2--2--2--2--2--|-2-----2-------2-------2----2---|
A#|-0--0--0--0--0--0--0--0--0--0---0--0--0--0--0--|-0-----0-------0-------0----0---|
    *  *  *  *  *  *  *  *  *  *   *  *  *  *  *    *     *       *       *    *

Riff 4 (w/ dist) guitars are doubled:

D#|-------------------------|---------------------------|--------------------------|
A#|-------------------------|---------------------------|--------------------------|
F#|-------------------------|---------------------------|--------------------------|
C#|-------------------------|---------------------------|--------------------------|
G#|-----------9--7-----7----|---------------------------|--------------------------|
D#|-2---------7--7-----5----|-5---------5---3-------7---|------------7-------------|
A#|-0--0--0---------0-------|-3--0--0---3---3---0---5---|----0---0---5---0---3~~---|
       *  *         *            *  *           *            *   *       * 

Riff 4 ending:

D#|---------------------------------|---------------------------------|
A#|---------------------------------|---------------------------------|
F#|---------------------------------|---------------------------------|
C#|---------------------------------|---------------------------------|
G#|---------------------------------|---------------------------------|
D#|-5---5---5---5---5---5---5---5---|-7---7---7---7---7---------------|
A#|-3---3---3---3---3---3---3---3---|-5---5---5---5---5---0---3~~-----|
    *   *   *   *   *   *   *   *     *   *   *   *   *   *   

Riff 5 (w/ dist) guitars are doubled:

D#|---------------------------------|---------------------------------|
A#|---------------------------------|---------------------------------|
F#|---------------------------------|---------------------------------|
C#|---------------------------------|---------------------------------|
G#|-----7---9-------9---12----------|---------------------------------|
D#|-----5---7-------7---10----------|---------------------------------|
A#|-0-----------0-----------0---0---|-----0-------0-------0-------0---|
                            *                                        

Riff 5 ending:

D#|---------------------------------|--------------------------------|
A#|---------------------------------|--------------------------------|
F#|---------------------------------|--------------------------------|
C#|---------------------------------|--------------------------------|
G#|---------------------------------|--------------------------------|
D#|-----------------------------3---|-2------------------------------|
A#|-----0-------0-------0-------1---|-0------------------------------|
                                *     *

Song structure:

INTRO:
Riff 1 guitar 1 x6 + Riff 1 guitar 2 

VERSE:
Riff 2 x4
Riff 3 x8

CHORUS:
Riff 4 x3
Riff 4 with ending

VERSE 2:
Riff 2 x4
Riff 3 x8

BRIDGE:
Riff 2 x8

CHORUS 2:
Riff 4 x3
Riff 4 with ending

OUTRO:
Riff 5 x3
Riff 5 with ending

************************************
 
| s slide
| ~ vibrato
| * P.M
| x Mute note 

************************************
comments
We did not receive enough feedback on this tab! Please rate:
print report bad tab
1 2 3 4 5
I want to post or [tab]
guest
You may want to rate the tab now too:
select rating
Please do not post tabs as comments. Select "correction" instead!