Oops, an error
Loading. Please wait.

Our Own Way Bass Tab

version 1
version 1

Whole song

Interactive

397 views 1 this week
2 commentsread comments
1 2 3 4 5
please rate
add to favorites
launch autoscroll
font size
0
reset
guitar tuner
Autoscroll
slow
fast
+/-
esc
set tempo
stop
Help us to improve Ultimate-Guitar.com Take our survey!
×
Band- Mushroomhead
Song- Our Own Way

note: r= let ring

Slow part with no vocals
G|---------------------------------------------|
D|---------------------------------------------|
A|6r-------------------------------------------|
E|----------------------6r---------------------|

Jeff's verse
G|--------------------------------------------------------------------------|
D|--------------------------------------------------------------------------|
A|6r-----------------6r-----------------------------------------------------|
E|-------------------------------------6r-------------------6r--------------|

J Mann's verse
G|-----------------------------------------------------------|
D|-----------------------------------------------------------|
A|66666666666666666666666666666666---------------------------|
E|---------------------------------666-66-66-66-666-66-66-66-|

End part (J Mann keeps yelling ARISE!!!!)
G|----------------------------------|
D|----------------------------------|
A|6r--------------------------------|
E|---------------------666-66-66-66-|

end on this
G|---------------------------------|
D|---------------------------------|
A|---------------------------------|
E|666-66-66-66-6r------------------|

that's it. the order is simple. mushroomhead rules all
Suggest correction
Give kudos to tab author, rate the tab!
1 2 3 4 5
comments
print report bad tab
2 comments total.
0 reply
Salvial 10 wrote on May 28 2007, 12:04 am

Sooo bad. Sorry man. Short, wrong, no intro. Terrible.

0 reply
Tanner Streeter 324 wrote on April 29 2013, 06:06 pm

OK, so you've got the main rhythm of it down, all you need is the intro, and at the end of the song it's
G|---------------------------------|
D|---------------------------------|
A|-------------6r------------------|
E|666-66-66-66---------------------|

guest
You may want to rate the tab now too:
select rating
Wanna post a correction for this tab? Suggest correction