Oops, an error
Loading. Please wait.

Out Of My Mind tab

version 1
version 1

Whole song

Interactive

1,426 views 12 this week
no commentswrite comment
1 2 3 4 5
2 more votes to show rating
add to favorites
×
Save as Personal and add changes to this tab that will be seen only by you. Learn more ›
×
You can save this tab as Personal to edit and correct it or add notes. All changes will be seen only by you. Learn more »
launch autoscroll
font size
0
reset
how to read this tab
guitar tuner
backing track
0:00
0:00
edit
Autoscroll
slow
fast
+/-
esc
set tempo
stop
This is played on a 7 string, tuned a half step down. But for our purposes I tabbed
it out in Drop A# on a 6 string.


[Intro]  

C |--------------------------------------------------------------------------|
G |--------------------------------------------------------------------------|
D#|--------------------------------------------------------------------------|
A#|--------------------------------------------------------------------------| x2
F |--------------------------------------------------------------------------|
A#|-[0]-10-[0]-12-[0]-0h13-0h13-0h13-----------------------------------------|


[Verse part 1] 

C |--------------------------------------------------------------------------|
G |--------------------------------------------------------------------------|
D#|--------------------------------------------------------------------------|
A#|-5/7-----0--3/5-5-3-------------------------------------------------------| x3
F |-3/5-----0--3/5-5-3-------------------------------------------------------|
A#|-----0-0-0--3/5-5-3-------------------------------------------------------|
PM      x x


[Verse part 2] 

   PLAY 1 TIME, THAN GO BACK TO PART 1. DO ALL THAT TWICE
C |-0------------------------------------------------------------------------|
G |-3------------------------------------------------------------------------|
D#|-2------------------------------------------------------------------------|
A#|-0---5--------------------------------------------------------------------|
F |-0---5--------------------------------------------------------------------|
A#|-0---5--------------------------------------------------------------------|


[Verse part 3]  

C |--------------------------------------------------------------------------|
G |--------------------------------------------------------------------------|
D#|--------------------------------------------------------------------------|
A#|--------------------------------------------------------------------------| x3
F |--------------------------------------------------------------------------|
A#|-[0]-10-[0]-12-[0]-0h13p0-0h13p0-0h13p0-----------------------------------|


[Verse part 4]

C |--------------------------------------------------------------------------|
G |--------------------------------------------------------------------------|
D#|--------------------------------------------------------------------------|
A#|-5/7-----0---5h6p5-3h5p3--------------------------------------------------|
F |-3/5-----0---------------5h6p5-3h5p3--------------------------------------|
A#|-----0-0-0----------------------------------------------------------------|
PM      x x 


[Chorus part 1] 

   hold out these notes (listen to the song and you'll know what I mean)
C |-0------------------------------------------------------------------------|
G |-3------------------------------------------------------------------------|
D#|-2-------7---5------------------------------------------------------------|
A#|-0---5---7---5---3---5----------------------------------------------------|
F |-0---5---5---3---3---5----------------------------------------------------|
A#|-0---5-----------3---5----------------------------------------------------|


[Chorus part 2]

C |--------------------------------------------------------------------------|
G |--------------------------------------------------------------------------|
D#|-7---5--------------------------------------------------------------------|
A#|-7---5---3-3-3-3--5-------------------------------------------------------|
F |-5---3---3-3-3-3--5-------------------------------------------------------|
A#|---------3-3-3-3--5-------------------------------------------------------|
PM          x x x



[Breakdown part 1]
C |--------------------------------------------------------------------------|
G |--------------------------------------------------------------------------|
D#|--------------------------------------------------------------------------|
A#|--------------------------------------------------------------------------|
F |--------------------------------------------------------------------------|
A#|-3-0000-0000-00000000-5h6p5-3h5p3-----------------------------------------|
PM    xxxx xxxx xxxxxxxx

C |--------------------------------------------------------------------------|
G |--------------------------------------------------------------------------|
D#|--------------------------------------------------------------------------|
A#|---------5/7-7\5----------------------------------------------------------|
F |---------3/5-5\3----------------------------------------------------------|
A#|-0000-00---------5h6p5-3h5p3-0h3p0----------------------------------------|
PM  xxxx xx
PLAY 2 TIMES

C |--------------------------------------------------------------------------|
G |--------------------------------------------------------------------------|
D#|--------------------------------------------------------------------------|
A#|--------------------------------------------------------------------------|
F |--------------------------------------------------------------------------|
A#|-[0]-000000000000-000000000000-222222222222-333333333333------------------|
PM   x  xxxxxxxxxxxx xxxxxxxxxxxx xxxxxxxxxxxx xxxxxxxxxxxx
   /  \
  This tremolo is crazy long. Just spam that string till it's over.


[Outro]

C |-0-LET IT RING------------------------------------------------------------|
G |-3-LET IT RING------------------------------------------------------------|
D#|-2-LET IT RING------------------------------------------------------------|
A#|-0-LET IT RING------------------------------------------------------------|
F |-0-LET IT RING------------------------------------------------------------|
A#|-0-LET IT RING------------------------------------------------------------|



:--STRUCTURE--:
[Intro]----- 3x
[Verse]----- 2x
[Chorus]---- 1x
[Verse]----- 2x
[Chorus]---- 2x
[Breakdown]- 1x
[Intro]----- 1x
[Chorus]---- 2x
[Outro]----- 1x
:-------------:

And that's it. Really easy yet fun song to play. Email me at cravingaura@gmail.com if you have any questions
or recommendations. Have fun with this one! \m/ \m/

************************************

| h  | Hammer-on
| p  | Pull-off
| /  | Slide up
| \  | Slide down
| PM | Palm mute
| [] | Tremolo

************************************

            
            
Suggest correction
Creating personal tab
Creating personal tab
You can edit any tab online and save it as your Personal.

You can edit, replace or remove any tab part or add personal notes – all changes will be seen only by you.

Personal tabs can be accessed anytime from any device, even offline.
Learn more »
Give kudos to tab author, rate the tab!
1 2 3 4 5
comments
print report bad tab
guest
You may want to rate the tab now too:
select rating
Wanna post a correction for this tab? Suggest correction