Oops, an error
Loading. Please wait.

Slow Motion Bass Tab

159 views 1 this week
no commentswrite comment
1 2 3 4 5
please rate
add to favorites
launch autoscroll
font size
0
reset
guitar tuner
Autoscroll
slow
fast
+/-
esc
set tempo
stop
Help us to improve Ultimate-Guitar.com Take our survey!
×
Contributor
Andrew Zara 3,568
Band- Mushroomhead
Song- Slow Motion

No bass in intro

Verse:                            3x
|-----------------------------------|----|
|-----------------------------------|----|    
|---7------2------0-----------------|-2--|     < 4th
|------------------------2----------|----|


Chorus:                            2x
|-----------------------------------|-----------------------|
|-----------------------------------|-----------------------|
|--7-7-----2------------------------|--7-7-----2----4----4--|
|---------------2-------------------|-----------------------|


|-----------------------------------|
|-----------------------------------|
|---0-----2----4-4---0--------------|
|-----------------------------------|


|-----------------------------------|
|-----------------------------------|
|--0-----2----4-4-4-----------------|
|-----------------------------------|


|-----------------------------------|
|-----------------------------------|
|--0---2----------------------------|
|------------2----------------------|





There's an arc to his fist...

|----------------------------------------------------------------|
|----------------------------------------------------------------|
|--0-0-0-0-0-0-0-0--2-----4-----2-----4-----2--------------------|
|----------------------------------------------------------------|


Outro:
|-----------------------------------|
|-----------------------------------|
|--2--2--2--2------7----------------|
|-----------------------------------|


Order:

Verse
Chorus
Verse
Chorus
Verse
Chorus
Outro




 
comments
We did not receive enough feedback on this tab! Please rate:
print report bad tab
1 2 3 4 5
I want to post or [tab]
guest
You may want to rate the tab now too:
select rating
Please do not post tabs as comments. Select "correction" instead!