Oops, an error
Loading. Please wait.

Sun Doesnt Rise Bass Tab

version 1
version 1

Whole song

Interactive

3,843 views 3 this week
no commentswrite comment
1 2 3 4 5
please rate
add to favorites
launch autoscroll
font size
0
reset
guitar tuner
Autoscroll
slow
fast
+/-
esc
set tempo
stop
Help us to improve Ultimate-Guitar.com Take our survey!
×
Band- Mushroomhead
Song- Sun Doesn't Rise

Intro and middle bit
G---------------|
D---------------|
A-3-3-3-3-4-4-4-|
D---------------|

Verse

G---------8888-|
D--------------|
A-3---3--------|
D--------------|

end of verse goin up bit

G------------------|
D------------------|
A---------1-3------|
D-1-3-5-6----------|

Chorus
G---------------|
D---------------|
A-1-1-1---------|
D------1-6-4----|

End of chorus bit

G----------------|
D----------------|
A----------------|
D-6-4-3----------|

Verse 2

G--------------|
D--------------|
A-3---3--------|
D--------------|

End Verse 2 (same as end verse goin up bit)

Chorus

Intro and middle bit after very small gap

Verse 1

End verse goin up bit

Chorus

Outro

D--------------|
A-3-3-3--3-3-3-|
D--------------|
Suggest correction
Give kudos to tab author, rate the tab!
1 2 3 4 5
comments
print report bad tab
guest
You may want to rate the tab now too:
select rating
Wanna post a correction for this tab? Suggest correction