Oops, an error
Loading. Please wait.

Sun Doesnt Rise Bass Tab

version 3
version 3

Whole song

Interactive

959 views 6 this week
no commentswrite comment
1 2 3 4 5
please rate
add to favorites
launch autoscroll
font size
0
reset
guitar tuner
Autoscroll
slow
fast
+/-
esc
set tempo
stop
Help us to improve Ultimate-Guitar.com Take our survey!
×
Author
Every tab for this tab I've seen is wrong so I decided to tab it myself.
 This is for a 5 string bass.
 If all you have is a 4 String, you're gonna have to tune down. 

Intro (After Jeffrey sings "I can't find a way...")
G|-----------------------|
D|-----------------------|
A|-1-3-3-3--5-5-5--------|  2x
E|-----------------------|
B|-----------------------|
                                     (Repeat whole section once)
G|------------------------------------------|
D|------------------------------------------|
A|-1-3-3-3--5-3--3-------3-1----------------| 
E|-----------------4-4-4--------------------|
B|------------------------------------------|

Verse (Jmann: "I can't feel my fate...")
G|-------------------------|
D|-------------------------|
A|-------------------------| 2x
E|-------------------------|
B|-1-xx-1-xxxx-1-xx-1-xxxx-|

G|-------------------------------------|
D|-------------------------------------|
A|-------------------------------------| 
E|-------------------------------------|
B|-1-xx-1-xx-3-4~--1-xx-1-xx-3-4~------|

G|------------------------------|
D|------------------------------|
A|------------------------------| 
E|------------------------------|
B|-1-xx-1-xx-3-4~--4-6-7-9-7-6--|

Chorus
G|---------------------------|
D|---------------------------|
A|---------------------------| x3
E|---------------------------|
B|-0-xx-0-xx---0-4-7-4-3-0---|

G|-------------------------|
D|-------------------------|
A|-------------------------|
E|--------------4-2-2-1----|
B|-0-xx-0-xx--0---------4--|

Verse 
G|-------------------------|
D|-------------------------|
A|-------------------------| 2x
E|-------------------------|
B|-1-xx-1-xxxx-1-xx-1-xxxx-|

G|-------------------------------------|
D|-------------------------------------|
A|-------------------------------------| 
E|-------------------------------------|
B|-1-xx-1-xx-3-4~--1-xx-1-xx-3-4~------|

G|------------------------------|
D|------------------------------|
A|------------------------------| 
E|------------------------------|
B|-1-xx-1-xx-3-4~--4-6-7-9-7-6--|


G|-------------------------------------|
D|-------------------------------------|
A|-------------------------------------| 
E|-------------------------------------|
B|-1-xx-1-xx-3-4~--1-xx-1-xx-3-4~------|

G|------------------------------|
D|------------------------------|
A|------------------------------| 
E|------------------------------|
B|-1-xx-1-xx-3-4~--4-6-7-9-7-6--|

Chorus
G|---------------------------|
D|---------------------------|
A|---------------------------| x3
E|---------------------------|
B|-0-xx-0-xx---0-4-7-4-3-0---|

G|-------------------------|
D|-------------------------|
A|-------------------------|
E|--------------4-2-2-1----|
B|-0-xx-0-xx--0---------4--|

BREAK

G|-----------------------|
D|-----------------------|
A|-1-3-3-3--5-5-5--------|  2x
E|-----------------------|
B|-----------------------|
                                    (Repeat whole section once)
G|------------------------------------------|
D|------------------------------------------|
A|-1-3-3-3--5-3--3-------3-1----------------| 
E|-----------------4-4-4--------------------|
B|------------------------------------------|

G|-------------------------|
D|-------------------------|
A|-------------------------|  x2
E|-------------------------|
B|-1-xx-1-xxxx-1-xx-1-xxxx-|

Chorus
G|---------------------------|
D|---------------------------|
A|---------------------------| x3
E|---------------------------|
B|-0-xx-0-xx---0-4-7-4-3-0---|

G|-------------------------|
D|-------------------------|
A|-------------------------|
E|--------------4-2-2-1----|
B|-0-xx-0-xx--0---------4--|

G|-----------------------------------------|
D|-----------------------------------------|
A|-----------------------------------------|  x4
E|-----------------------------------------|
B|-1-1-1-xx-1-1-1-xxxx-1-1-1-xx-1-1-1-xxxx-|
Suggest correction
Give kudos to tab author, rate the tab!
1 2 3 4 5
comments
print report bad tab
guest
You may want to rate the tab now too:
select rating
Please do not post tabs as comments. Select "correction" instead!