Oops, an error
Loading. Please wait.

Sun Doesnt Rise Tab

version 4
version 4

Whole song

Interactive

1,547 views 1 this week
1 commentread comment
1 2 3 4 5
1 last vote to show rating
add to favorites
launch autoscroll
font size
0
reset
how to read this tab
guitar tuner
backing track
0:00
0:00
×
Best way to learn
"Sun Doesnt Rise"
Autoscroll
slow
fast
+/-
esc
set tempo
stop
Band - Mushroomhead
Song - Sun Doesn't Rise
Album - XIII
Tuning - Bb,Eb,Ab,Db,Gb,Bb,Eb

[Intro] - Guitar 1 w/palm mutes
Eb|-------------------------------------------------------------------------------------------------|
Bb|-------------------------------------------------------------------------------------------------|
Gb|-------------------------------------------------------------------------------------------------|
Db|-------------------------------------------------------------------------------------------------|
Ab|-2-4-4-4-4-4-4-4-4-5-5-5-5-5-5-5-2-4-4-4-4-4-4-4-4-5-5-5-4-4-4-4-4-----------------4-4-4-2-2-2-2-|
Eb|-------------------------------------------------------------------5-5-5-5-5-5-5-5---------------|
Bb|-------------------------------------------------------------------------------------------------|

[Verse]
Eb|----------------------|
Bb|----------------------|
Gb|----------------------|
Db|----------------------|
Ab|-4-4-x-x-4--4-x-x-x-x-|   4x
Eb|-4-4-x-x-4--4-x-x-x-x-|
Bb|-2-2-x-x-2--2-x-x-x-x-|

Eb|------------------------|
Bb|------------------------|
Gb|------------------------|
Db|------------------------|
Ab|-4-4-x-x-4--4-x-5/7-7-7-|   3x
Eb|-4-4-x-x-4--4-x---------|
Bb|-2-2-x-x-2--2-x---------|

Eb|-----------------|
Bb|-----------------|
Gb|-----------------|
Db|---4--5--7-10-10-|
Ab|-7-4--5--7-10-10-|
Eb|-7-2--3--5-8--8--|
Bb|-5---------------|

[Chorus]
Eb|-------------------------------|
Bb|-------------------------------|
Gb|-------------------------------|
Db|-------------------------7-----|
Ab|-9-x-x-x-9--x-x-x-9--7---7---5-|   3x
Eb|-7-x-x-x-7--x-x-x-7--7---5---5-|
Bb|-0-x-x-x-0--x-x-x-0--5-------3-|

Eb|---------------------------------|
Bb|---------------------------------|
Gb|---------------------------------|
Db|---------------------7-5--5--4-2-|
Ab|-9-x-x-x-9--x-x-x-9--7-5--5--4-2-|
Eb|-7-x-x-x-7--x-x-x-7--5-3--3--2-0-|
Bb|-0-x-x-x-0--x-x-x-0--------------|

[Verse]
Eb|----------------------|
Bb|----------------------|
Gb|----------------------|
Db|----------------------|
Ab|-4-4-x-x-4--4-x-x-x-x-|   4x
Eb|-4-4-x-x-4--4-x-x-x-x-|
Bb|-2-2-x-x-2--2-x-x-x-x-|

Eb|------------------------|
Bb|------------------------|
Gb|------------------------|
Db|------------------------|
Ab|-4-4-x-x-4--4-x-5/7-7-7-|   3x
Eb|-4-4-x-x-4--4-x---------|
Bb|-2-2-x-x-2--2-x---------|

Eb|-----------------|
Bb|-----------------|
Gb|-----------------|
Db|---4--5--7-10-10-|
Ab|-7-4--5--7-10-10-|
Eb|-7-2--3--5-8--8--|
Bb|-5---------------|

[Chorus]
Eb|-------------------------------|
Bb|-------------------------------|
Gb|-------------------------------|
Db|-------------------------7-----|
Ab|-9-x-x-x-9--x-x-x-9--7---7---5-|   3x
Eb|-7-x-x-x-7--x-x-x-7--7---5---5-|
Bb|-0-x-x-x-0--x-x-x-0--5-------3-|

Eb|---------------------------------|
Bb|---------------------------------|
Gb|---------------------------------|
Db|---------------------7-5--5--4-2-|
Ab|-9-x-x-x-9--x-x-x-9--7-5--5--4-2-|
Eb|-7-x-x-x-7--x-x-x-7--5-3--3--2-0-|
Bb|-0-x-x-x-0--x-x-x-0--------------|

[Bridge]
Eb|-----------------------------------------------------------------------------------|
Bb|-----------------------------------------------------------------------------------|
Gb|-----------------------------------------------------------------------------------|
Db|-----------------------------------------------------------------------------------|
Ab|-4-----------------x-x-x-x-x-x-x-x-x-x-x-x-x-x-x-x-2-4-4-4-4-4-4-4-4-4-4-4-4-4-4-4-|
Eb|-4---------------------------------------------------------------------------------|
Bb|-2---------------------------------------------------------------------------------|
                                               
[Verse]
Eb|------------------------|
Bb|------------------------|
Gb|------------------------|
Db|------------------------|
Ab|-4-4-x-x-4--4-x-4-4-4/5-|   3x
Eb|-4-4-x-x-4--4-x---------|
Bb|-2-2-x-x-2--2-x---------|

Eb|-----------|
Bb|-----------|
Gb|-----------|
Db|-----------|
Ab|-4-4-x-x-4-|
Eb|-4-4-x-x-4-|
Bb|-2-2-x-x-2-|

[Chorus]
Eb|-------------------------------|
Bb|-------------------------------|
Gb|-------------------------------|
Db|-------------------------7-----|
Ab|-9-x-x-x-9--x-x-x-9--7---7---5-|   3x
Eb|-7-x-x-x-7--x-x-x-7--7---5---5-|
Bb|-0-x-x-x-0--x-x-x-0--5-------3-|

Eb|---------------------------------|
Bb|---------------------------------|
Gb|---------------------------------|
Db|---------------------7-5--5--4-2-|
Ab|-9-x-x-x-9--x-x-x-9--7-5--5--4-2-|
Eb|-7-x-x-x-7--x-x-x-7--5-3--3--2-0-|
Bb|-0-x-x-x-0--x-x-x-0--------------|

[Outro]
Eb|-----------------------------|
Bb|-----------------------------|
Gb|-----------------------------|
Db|-----------------------------|
Ab|-4-4-4-x-x-4-4-4-x-x-x-x-x-x-|   4x
Eb|-4-4-4-x-x-4-4-4-x-x-x-x-x-x-|
Bb|-2-2-2-x-x-2-2-2-x-x-x-x-x-x-|

Eb|---------------------------|
Bb|---------------------------|
Gb|---------------------------|
Db|---------------------------|
Ab|-4-4-4-x-x-4-4-4-x-x-x-x-x-|   3x
Eb|-4-4-4-x-x-4-4-4-x-x-x-x-x-|
Bb|-2-2-2-x-x-2-2-2-x-x-x-x-x-|

Eb|-----------------|
Bb|-----------------|
Gb|-----------------|
Db|-----------------|
Ab|-4-4-4-x-x-4-4-4-|
Eb|-4-4-4-x-x-4-4-4-|
Bb|-2-2-2-x-x-2-2-2-|
Suggest correction
Give kudos to tab author, rate the tab!
1 2 3 4 5
comments
print report bad tab
1 comment total.
+1 reply
tza 3,422 Sep 29, 2010 10:41 AM

5 stars for getting the proper tuning correct

|-----------------|
|-----------------|
|-----------------|
|-----------------|
|-2-5--5--7-10-10-|
|-0-2--3--5-8--8--|
|-----------------|

Chorus
|---------------------------------|
|---------------------------------|
|---------------------------------|
|---------------------------------|
|-9--9-x-x-9--x-x-x-9--7---7----5-|
|-7--7-x-x-7--x-x-x-7--7---5--3---|
|-0--0-x-x-0--x-x-x-0--5----------|

|---------------------------------|
|---------------------------------|
|---------------------------------|
|---------------------------------|
|-9--9-x-x-9--x-x-x-9--7---7------|
|-7--7-x-x-7--x-x-x-7--7---5--0h3-|
|-0--0-x-x-0--x-x-x-0--5----------|

|---------------------------------|
|---------------------------------|
|---------------------------------|
|---------------------------------|
|-9--9-x-x-9--x-x-x-9--7---7----5-|
|-7--7-x-x-7--x-x-x-7--7---5--3---|
|-0--0-x-x-0--x-x-x-0--5----------|

|-----------------------------------|
|-----------------------------------|
|-----------------------------------|
|-----------------------------------|
|-9--9-x-x-9--x-x-x-9---7-5--5-5--2-|
|-7--7-x-x-7--x-x-x-7---5-3--3-2--0-|
|-0--0-x-x-0--x-x-x-0---------------|

guest
You may want to rate the tab now too:
select rating
Wanna post a correction for this tab? Suggest correction