Oops, an error
Loading. Please wait.

Sun Doesnt Rise Tab

version 4
version 4

Whole song

Interactive

1,484 views 3 this week
1 commentread comment
1 2 3 4 5
please rate
add to favorites
launch autoscroll
font size
0
reset
how to read this tab
guitar tuner
Autoscroll
slow
fast
+/-
esc
set tempo
stop
Help us to improve Ultimate-Guitar.com Take our survey!
×
Band - Mushroomhead
Song - Sun Doesn't Rise
Album - XIII
Tuning - Bb,Eb,Ab,Db,Gb,Bb,Eb

Intro - Guitar 1 w/palm mutes
|-------------------------------------------------------------------------------------------------|
|-------------------------------------------------------------------------------------------------|
|-------------------------------------------------------------------------------------------------|
|-------------------------------------------------------------------------------------------------|
|-2-4-4-4-4-4-4-4-4-5-5-5-5-5-5-5-2-4-4-4-4-4-4-4-4-5-5-5-4-4-4-4-4-----------------4-4-4-2-2-2-2-|
|-------------------------------------------------------------------5-5-5-5-5-5-5-5---------------|
|-------------------------------------------------------------------------------------------------|

Verse
|----------------------|
|----------------------|
|----------------------|
|----------------------|
|-4-4-x-x-4--4-x-x-x-x-|   4x
|-4-4-x-x-4--4-x-x-x-x-|
|-2-2-x-x-2--2-x-x-x-x-|

|------------------------|
|------------------------|
|------------------------|
|------------------------|
|-4-4-x-x-4--4-x-5/7-7-7-|   3x
|-4-4-x-x-4--4-x---------|
|-2-2-x-x-2--2-x---------|

|-----------------|
|-----------------|
|-----------------|
|---4--5--7-10-10-|
|-7-4--5--7-10-10-|
|-7-2--3--5-8--8--|
|-5---------------|

Chorus
|-------------------------------|
|-------------------------------|
|-------------------------------|
|-------------------------7-----|
|-9-x-x-x-9--x-x-x-9--7---7---5-|   3x
|-7-x-x-x-7--x-x-x-7--7---5---5-|
|-0-x-x-x-0--x-x-x-0--5-------3-|

|---------------------------------|
|---------------------------------|
|---------------------------------|
|---------------------7-5--5--4-2-|
|-9-x-x-x-9--x-x-x-9--7-5--5--4-2-|
|-7-x-x-x-7--x-x-x-7--5-3--3--2-0-|
|-0-x-x-x-0--x-x-x-0--------------|

Play Verse

Play Chorus

Bridge
|-----------------------------------------------------------------------------------|
|-----------------------------------------------------------------------------------|
|-----------------------------------------------------------------------------------|
|-----------------------------------------------------------------------------------|
|-4-----------------x-x-x-x-x-x-x-x-x-x-x-x-x-x-x-x-2-4-4-4-4-4-4-4-4-4-4-4-4-4-4-4-|
|-4---------------------------------------------------------------------------------|
|-2---------------------------------------------------------------------------------|
                                               
Verse
|------------------------|
|------------------------|
|------------------------|
|------------------------|
|-4-4-x-x-4--4-x-4-4-4/5-|   3x
|-4-4-x-x-4--4-x---------|
|-2-2-x-x-2--2-x---------|

|-----------|
|-----------|
|-----------|
|-----------|
|-4-4-x-x-4-|
|-4-4-x-x-4-|
|-2-2-x-x-2-|

Play Chorus

Outro
|-----------------------------|
|-----------------------------|
|-----------------------------|
|-----------------------------|
|-4-4-4-x-x-4-4-4-x-x-x-x-x-x-|   4x
|-4-4-4-x-x-4-4-4-x-x-x-x-x-x-|
|-2-2-2-x-x-2-2-2-x-x-x-x-x-x-|

|---------------------------|
|---------------------------|
|---------------------------|
|---------------------------|
|-4-4-4-x-x-4-4-4-x-x-x-x-x-|   3x
|-4-4-4-x-x-4-4-4-x-x-x-x-x-|
|-2-2-2-x-x-2-2-2-x-x-x-x-x-|

|-----------------|
|-----------------|
|-----------------|
|-----------------|
|-4-4-4-x-x-4-4-4-|
|-4-4-4-x-x-4-4-4-|
|-2-2-2-x-x-2-2-2-|
Suggest correction
Give kudos to tab author, rate the tab!
1 2 3 4 5
comments
print report bad tab
1 comment total.
0 reply
tza 3,424 wrote on September 29 2010, 02:41 pm

5 stars for getting the proper tuning correct

|-----------------|
|-----------------|
|-----------------|
|-----------------|
|-2-5--5--7-10-10-|
|-0-2--3--5-8--8--|
|-----------------|

Chorus
|---------------------------------|
|---------------------------------|
|---------------------------------|
|---------------------------------|
|-9--9-x-x-9--x-x-x-9--7---7----5-|
|-7--7-x-x-7--x-x-x-7--7---5--3---|
|-0--0-x-x-0--x-x-x-0--5----------|

|---------------------------------|
|---------------------------------|
|---------------------------------|
|---------------------------------|
|-9--9-x-x-9--x-x-x-9--7---7------|
|-7--7-x-x-7--x-x-x-7--7---5--0h3-|
|-0--0-x-x-0--x-x-x-0--5----------|

|---------------------------------|
|---------------------------------|
|---------------------------------|
|---------------------------------|
|-9--9-x-x-9--x-x-x-9--7---7----5-|
|-7--7-x-x-7--x-x-x-7--7---5--3---|
|-0--0-x-x-0--x-x-x-0--5----------|

|-----------------------------------|
|-----------------------------------|
|-----------------------------------|
|-----------------------------------|
|-9--9-x-x-9--x-x-x-9---7-5--5-5--2-|
|-7--7-x-x-7--x-x-x-7---5-3--3-2--0-|
|-0--0-x-x-0--x-x-x-0---------------|

guest
You may want to rate the tab now too:
select rating
Please do not post tabs as comments. Select "correction" instead!