Oops, an error
Loading. Please wait.

The Need Bass Tab

418 views 1 this week
no commentswrite comment
1 2 3 4 5
please rate
add to favorites
launch autoscroll
font size
0
reset
guitar tuner
Autoscroll
slow
fast
+/-
esc
set tempo
stop
Help us to improve Ultimate-Guitar.com Take our survey!
×
Author
Intro - 4/4 time, about 130 tempo, Drop D tuning.

G------------------|------------------|------------------|    |-6-6b\3-5-6--6-5--|
D------------------|------------------|------------------|    |------------------|
A------------------|------------------|------------------|    |------------------|
D-8~~~~~~~~~~~~~~~~|~6~~~~~~~~~~~~~~~~|~1~~~~~~~~~~~~~~~~| x2 |------------------| 
(end of second time)

Intro x4 (with what sounds like some slaps in there) |---3-5-6b\5/6-h3--|
                                                     |-1----------------|
                                                     |------------------|
                                                     |------------------| (end of phrase)

Verse #1

G------------------|------------------|---------R--R-----|-r----------------|
D-------------1----|-2-1----1-----1---|---------E--E-----|-e----------------|
A-1--1-------------|-----h4-----------|-1--1----S--S-----|-s-1-1x------1x---|
D--------6---------|------------------|---------T--T-----|-t----------------| x2

Verse #2

G------------------|------------------|------------------|------------------|
D------------------|-1~~~~~~4~~~~~~~~~|------------------|------------------|
A-1~~~~~~----------|------------------|~1~~~~~~~~~~~~~~~~|-1-1-11--1--11--1-|
D--------6~~~~~~~~~|------------------|------------------|------------------|

G-3~~~~~~1~~~~~~~~~|------------------|------------------|------------------|
D------------------|~1~~~~~~----------|------------------|------------------|
A------------------|--------4~~~~~~~~~|~1~~~~~~~~~~~~~~~~|~~~~~~~~~~~~~~~~~~|
D------------------|------------------|------------------|------------------|

Verse #1 x1 (and then...)

G------------------|------------------|------------------|--------1-h3b--1--|
D-------------1----|-2-1----1-----1---|------------------|---1-h2-----------|
A-1--1-------------|-----h4-----------|-1--1-1-1-1-1-----|-1----------------|
D--------6---------|------------------|------------------|------------------|

Interlude x2

G------------------|
D------------------| * = Palm mute
A-1*-11*-111*-11*--|
D------------------| x4

Chorus (intro) (higher octave)

                    (grace note)                                                            
G-3~~~~~~~~~~~~~~~~|~p0-h1b~~~~~~~~~~~|-------------------|------------h1-2--| 
D------------------|------------------|~1~~~~~~~~~~~~~~~~~|~1~~~~~~~~5-------|
A------------------|------------------|-------------------|------------------|
D------------------|------------------|-------------------|------------------| 

G-3~~~~~~~~~~~~~~~~|~h6\5b~~~~~~~~~~~~|~h2-3~~~~~~~~~~~~~~|~~~~~~~~~~~~~~~h6-|
D------------------|------------------|-------------------|------------------|
A------------------|------------------|-------------------|------------------|
D------------------|------------------|-------------------|------------------|

G-3~~~~~~~~6-h78!/-|-12/13!~~~~~~~~~~~|-------------------|------------------|
D------------------|------------------|-------------------|------------------|
A------------------|------------------|-------------------|------------------|
D------------------|------------------|-13~~~~~~~~~~~~~~~~|~~~~~~~~~~~~~~~~~~|

G-3~~~~~~~~~~~~~~~~|-----h13b~~~~~~~~~|-------------------|------------------|
D------------------|-h13--------------|-------------------|------------------|
A------------------|------------------|-------------------|------------------|
D------------------|------------------|-13~~~~~~~~~~~~~~~~|~~~~~~~~~~~~~~~~~~|

-rest-

Outro (chorus) (by this time you should know the bass does a bit of little solos 
which can be hard to hear)

G------------------|------------------|-------------------|---------0-1-2/---|    
D------------------|------------------|-------------------|------------------|    
A------------------|------------------|-------------------|------------------|    
D-8~~~~~~~~~~~~~~~~|~6~~~~~~~~~~~~~~~~|~2b\1~~~~~~~~~~~~~~|~~~~~~~~~---------| 

G------------------|------------------|-------------------|------------------|
D------------------|------------------|-------------------|------------------|
A------------------|------------------|-------------------|------------------|
D-8~~~~~~~~~~~~~~~~|~6~~~~~~~~~~~~~~~~|~1~~~~~~~~~~~~~~~~~|~~~~~~~~~~~~~~~~~~| x3

G---9-8-9-8--------|-9-8-9-8--h13~~~~~|-------------------|------------------|
D------------h11~~~|------------------|-------------------|------------------|
A------------------|------------------|-------------------|------------------|
D-8----------------|------------------|-1--1-1-11--1----1-|-1----11----1-1---| x3

Last verse is the intro x1. (D8, D6, D1).

A-1~~~~~~~~~~~~~~~~~~~~~~~~~~~~~~~~~~~~~~~~~~~~~~~~~~~~~~~~~~~~~~~~~~~~~~~~~~| (fade away)
Suggest correction
What's this?
You can suggest a correction to this tab. Community and Mods will review your correction and vote to approve or reject it.
comments
We did not receive enough feedback on this tab! Please rate:
print report bad tab
1 2 3 4 5
guest
You may want to rate the tab now too:
select rating
Please do not post tabs as comments. Select "correction" instead!