Oops, an error
Loading. Please wait.

The Wrist Tab

version 1
version 1

Whole song

Interactive

121 views 1 this week
no commentswrite comment
1 2 3 4 5
3 more votes to show rating
add to favorites
launch autoscroll
font size
0
reset
how to read this tab
guitar tuner
Autoscroll
slow
fast
+/-
esc
set tempo
stop
Help us to improve Ultimate-Guitar.com Take our survey!
×
Author
Tuning is C standard, down slightly less than a quarter step.

Riff 1
|------------------------------------------|
|------------------------------------------|
|------------------------------------------|
|------------------------------------------|
|-2-2-2---2---2-----2--3-3-3---3---3-----3-|
|-0-0-0---0---0-----0--1-1-1---1---1-----1-|
  - - -   -   -     -  - - -   -   -     -
During the first verse they throw this in in the middle
|---------------------------------|
|---------------------------------|
|---------------------------------|
|-2---2---2---2---3---3---3---3---|
|---------------------------------|
|---------------------------------|

Riff 2
|----------------------------------------------------------|
|----------------------------------------------------------|
|----------------------------------------------------------|
|----------------------------------------------------------|
|-12-----12\10-10----10\7-7----7-7--------7----7-7---------|
|-10-----10\8--8------8\5-5----5-5--------5----5-5---------|

One of the last times they play it, they throw in this version...
|----------------------------------------------------------|
|----------------------------------------------------------|
|----------------------------------------------------------|
|----------------------------------------------------------|
|-12-----12\15-15----15\7-7----7-7--------7----7-7---------|
|-10-----10\13-13----13\5-5----5-5--------5----5-5---------|


Riff 3 - This is sometimes palm muted and sometimes not.
|-----------------------------------------------|
|-----------------------------------------------|
|-----------------------------------------------|
|-----------------------------------------------|
|-14-14-14-----14-14-14-14-14-------10-10-10----|
|-12-12-12-----12-12-12-12-12-------8--8--8-----|

Riff 4 - Just sort of a little lead-in to get back into riff 3
|-------------------------------|
|-------------------------------|
|-------------------------------|
|-------------------------------|
|-14-------12/15-14-------12/15-|
|-12-------10/13-12-------10/13-|

Suggest correction
Give kudos to tab author, rate the tab!
1 2 3 4 5
comments
print report bad tab
guest
You may want to rate the tab now too:
select rating
Wanna post a correction for this tab? Suggest correction