Oops, an error
Loading. Please wait.

These Filthy Hands Tab

version 4
version 4

Whole song

78 views 1 this week
no commentswrite comment
1 2 3 4 5
3 more votes to show rating
add to favorites
launch autoscroll
font size
0
reset
how to read this tab
guitar tuner
Autoscroll
slow
fast
+/-
esc
set tempo
stop
Help us to improve Ultimate-Guitar.com Take our survey!
×
Author
I went into a pretty detailed description of Mushroomhead's tuning in my Bwomp tab. 
Slightly less than a quarter step down from C standard.

Part 1 (Verse)
|------------------------------------------|
|------------------------------------------|
|------------------------------------------|
|------------------------------------------|
|-4/6-6-6-6---6-6-------6-6-----6-6--------|
|-2/4-4-4-4---4-4-------4-4-----4-4--------|
      - -     -         - -     - -
|------------------------------------------|
|------------------------------------------|
|------------------------------------------|
|------------------------------------------|
|-6/7-7-7-7---7-7-------7-7-----7-7--------|
|-4/5-5-5-5---5-5-------5-5-----5-5--------|
      - -     -         - -     - -

|------------------------------------------|
|------------------------------------------|
|------------------------------------------|
|------------------------------------------|
|-4/6-6-6-6---6-6-------6-6-----6-6--------|
|-2/4-4-4-4---4-4-------4-4-----4-4--------|
      - -     -         - -     - -

                       | This tailpiece only get's played when they are
                       V about to go into the chorus
|--------------------|---------------------------------|
|--------------------|---------------------------------|
|--------------------|---------------------------------|
|--------------------|---------------------------------|
|-4-(Hold)-----------|-4-4---4-4---4-4---4-4---4-4-4-4-|
|-2-(Hold)-----------|-2-2---2-2---2-2---2-2---2-2-2-2-|
                       - -   - -   - -   - -   - - - -
Part 2 (Chorus)
|------------------------------------------------|
|------------------------------------------------|
|------------------------------------------------|
|------------------------------------------------|
|-4/6-6-6-6---6-6-6-6-6-6-6-6-6-6-6-----6-6------|
|-2/4-4-4-4---4-4-4-4-4-4-4-4-4-4-4-----4-4------|
      - -     -   -   - -               -
|------------------------------------------------|
|------------------------------------------------|
|------------------------------------------------|
|------------------------------------------------|
|-6/7-7-7-7---7-7-7-7-7-7-7-7-7-7-7-----7-7---9--|
|-4/5-5-5-5---5-5-5-5-5-5-5-5-5-5-5-----5-5---7--|
      - -     -   -   - -               -
|------------------------------------------------|
|------------------------------------------------|
|------------------------------------------------|
|------------------------------------------------|
|-4/6-6-6-6---6-6-6-6-6-6-6-6-6-6-6-----6-6------|
|-2/4-4-4-4---4-4-4-4-4-4-4-4-4-4-4-----4-4------|
      - -     -   -   - -               -

                       | Here the tailpiece only gets played when they are
                       V about to go into the bridge
|--------------------|---------------------------------|
|--------------------|---------------------------------|
|--------------------|---------------------------------|
|--------------------|---------------------------------|
|-4-(Hold)-----------|-4-4---4-4---4-4---4-4---4-4-4-4-|
|-2-(Hold)-----------|-2-2---2-2---2-2---2-2---2-2-2-2-|
                       - -   - -   - -   - -   - - - -
Part 3 (Bridge)
|---------------------------------|   |-------------------------------|
|---------------------------------|   |-------------------------------|
|---------------------------------|   |-------------------------------|
|---------------------------------|x7 |-------------------------------|x1
|-6-6-6---6-6-6---6-6-6---6-6-6---|   |-6-6---6-6---6-6---6-6---6-6-6-|
|-4-4-4---4-4-4---4-4-4---4-4-4---|   |-4-4---4-4---4-4---4-4---4-4-4-|
  - - -   - - -   - - -   - - -               - -         - -
(Later on this whole section gets played again but with no palm muting in the first 
chunk and a held out version of the verse riff gets inserted before this last riff)
|----------------------------------|
|----------------------------------|
|----------------------------------|
|----------------------------------|
|-11-11--9-9---6-6---6-7---6---7---|
|-9--9---7-7---4-4---4-5---4---5---|
                     -
Part 4 (Kind of an interlude before breaking back into the Bridge)
|---------------------------------------------------------------|
|---------------------------------------------------------------|
|---------------------------------------------------------------|
|---------------------------------------------------------------|x3
|-6-6-6---6-6-6---6-6-6---6-6-6---6-6---6-6---6-6---6-6---6-6-6-|
|-4-4-4---4-4-4---4-4-4---4-4-4---4-4---4-4---4-4---4-4---4-4-4-|
  - - -   - - -   - - -   - - -         - -         - -
|-----------------------------------------------------------------|
|-----------------------------------------------------------------|
|-----------------------------------------------------------------|
|-----------------------------------------------------------------|x1
|-6-6-6---6-6-6---6-6-6---6-6-6---6-6---6-6---6-6---6-6---6-6-6---|
|-4-4-4---4-4-4---4-4-4---4-4-4---4-4---4-4---4-4---4-4---4-4-4---|
  - - -   - - -   - - -   - - -   - -   - -   - -   - -   - - - -
Suggest correction
Give kudos to tab author, rate the tab!
1 2 3 4 5
comments
print report bad tab
guest
You may want to rate the tab now too:
select rating
Wanna post a correction for this tab? Suggest correction