Oops, an error
Loading. Please wait.

Thirteen Tab

945 views 1 this week
1 commentread comment
1 2 3 4 5
accurate
x 4
add to favorites
launch autoscroll
font size
0
reset
how to read this tab
guitar tuner
Tab Pro tools
  • play this tab
  • loop segment
  • change instrument
  • show fretboard
  • metronome
Autoscroll
slow
fast
+/-
esc
set tempo
stop
Contributor
Song: Thirteen (Crazy)
Album: XIII
Originally Performed By: Seal
Guitarists: Mark "Bronson" Vukevich & Dave "Gravy" Felton
Tuning: Drop "D" (D,A,D,G,B,E)

Intro: (Guitar 1)

E}-----------------------------
B}-----------------------------
G}-----------------------------
D}-xx--xx-xxxx--xx--xxxx-------(2 times)
A}-xx--xx-xxxx--xx--xxxx-------
D}-xx--xx-xxxx--xx--xxxx-------

(Both Guitars)
|----------------------------
|--4----7----9----9----------
|--4----7----9----9----------
|--2----5----7----7----------
|--2----5----7----7----------
|--2----5----7----7----------

Verse pt. 1 (Guitar 1)
|-4----7----9         |----------------
|-5----8---10         |-4----7----9----
|-4----7----9         |-4----7----9----
|-------------     or |-2----5----7----   ( Play Twice)
|-------------        |---------------
|-------------        |---------------
|-------------        |---------------

Verse pt. 2 (Both Guitars)
|----------------------------------
|----------------------------------
|----------------------------------
|--22-22-55-55-77-77-77-77---------
|--22-22-55-55-77-77-77-77----(Guitar 2 plays this twice, Guitar 1 plays this once)
|--22-22-55-55-77-77-77-77--------
(I prefer play this part with three chords in a section rather than two,
because it sounds a bit heavier, but this is the correct way)

Play over Verse pt. 2 second time (Guitar 1)
|---------------------------------------------------
|---------------------------------------------------
|---------------------------------------------------
|--22222222555555557777777777777777-----------------
|--22222222555555557777777777777777-----------------
|--22222222555555557777777777777777-----------------
....................................................
(palm mute)

Chorus: (Both Guitars)
|--------------------------------------------------------------------------
|--------------------------------------------------------------------------
|5-5-5-5-5-5-5-5-----------------------------------------------------------
|5-5-5-5-5-5-5-5-5-5-5-5-5-5-5-5-xxxx12xxxx12xxxx12xxxx12------------------
|3-3-3-3-3-3-3-3-5-5-5-5-5-5-5-5-xxxx12xxxx12xxxx12xxxx12------------------
|----------------5-5-5-5-5-5-5-5-xxxx12xxxx12xxxx12xxxx12------------------
(You can play the 'C' chord (3,5,5) as a bar chord on the 10th fret, which is
usually easier)(Also I believe that "C" and "G" are played once but I prefer this way)

Verse pt. 3 (Guitar 2)
|------------------/\
|--4----7----9-----/\
|--4----7----9-----/\
|--2----5----7-----/\
|--2----5----7-----/\
|--2----5----7-----/\

( This, "/\", means to scrape down then up on the strings with your pick)

Bridge: (Guitar 1 then 1&2)
|--/\---------------------------
|--/\---------------------------
|--/\---------------------------
|--/\--------0----2----5----7---       (play twice)
|--/\--------0----2----5----7---
|--/\--------0----2----5----7---

(Second time you play this, bend the last chord to substitute from the raunchy wah sound)

Chorus (Second Way): (Both Guitars)
|------------------------------------------------------------
|------------------------------------------------------------
|--5-5-5-5-5-5-5-5------------------------------------------- (play 4 times)
|--5-5-5-5-5-5-5-5-5-5-5-5-5-5-5-5-12-12-12-12-12-12-12-12---
|--3-3-3-3-3-3-3-3-5-5-5-5-5-5-5-5-12-12-12-12-12-12-12-12---
|------------------5-5-5-5-5-5-5-5-12-12-12-12-12-12-12-12---
(I think the chords here are only played once as well)

Outro: (Both Guitars)
|-------------------------
|-------------------------
|-------------------------
|--22--22--22--22-1------- (play 5 times)
|--22--22--22--22-1-------
|--22--22--22--22-1-------

Order:
Intro 
Verse pt. 1 (x2)
Verse pt. 2 (x2)
Chorus (x2)
Verse pt. 1 
Verse pt. 3
Verse pt. 2 (x2)
Chorus (x2)
Chorus Second Way
Bridge (x2)
Chorus Second Way (x4)
comments
print report bad tab
1 comment total.
0 reply
Engel1 wrote on February 17 2009, 05:28 pm

wrong...

I want to post or [tab]
guest
You may want to rate the tab now too:
select rating
Please do not post tabs as comments. Select "correction" instead!