Oops, an error
Loading. Please wait.

Wrist Bass Tab

552 views 1 this week
no commentswrite comment
1 2 3 4 5
please rate
add to favorites
launch autoscroll
font size
0
reset
guitar tuner
Autoscroll
slow
fast
+/-
esc
set tempo
stop
Help us to improve Ultimate-Guitar.com Take our survey!
×
Band- Mushroomhead
Song- The Wrist

(Intro/Outro) x4
G------------------------------|
D------------------------------|
A------------------------------|
D-10---11---10---11------------|

(verse 1) x1
G--------------------------------------------------------------------------|
D--------------------------------------------------------------------------|
A--------------------------------------------------------------------------|
D-/12--222-22--2-333-33-3-32222-2-23333-3-32222-2-23333-3-32222-2-233333-3-|

(chorus) x1
G-----------------------------------------|
D-----------------------------------------|
A-----------------------------------------|
D-8----6----4h3-33-3-3-3-3-4h3-33-3-3-3-3-|

(bridge)
G-----------------|
D-----------------|
A-----------------|
D-10----11-11h10--|

(verse 3) x2
G---------------|----------------------|
D---------------|----------------------|
A---------------|----------------------|
D-222-22222-333-|-4-----5--4-----5--4--|
Suggest correction
Give kudos to tab author, rate the tab!
1 2 3 4 5
comments
print report bad tab
guest
You may want to rate the tab now too:
select rating
Wanna post a correction for this tab? Suggest correction