Oops, an error
Loading. Please wait.

Your Soul Is Mine tab

version 1
version 1

Whole song

6,737 views 6 this week
4 commentsread comments
1 2 3 4 5
x 7
add to favorites
×
Save as Personal and add changes to this tab that will be seen only by you. Learn more ›
×
You can save this tab as Personal to edit and correct it or add notes. All changes will be seen only by you. Learn more »
launch autoscroll
font size
0
reset
how to read this tab
guitar tuner
edit
Autoscroll
slow
fast
+/-
esc
set tempo
stop
                            "Your Soul Is Mine"
                               Mushroomhead

THIS IS MY OWN INTERPRETATION!!!

Key: Bb Phrygian
The theory to Bb Phrygian is that you take Bb Minor (Bb Eb Ab Db and Gb) and flat the
2nd note of the scale and sharp the 3rd. The scale notes are Bb C Db Eb F Gb Ab and Bb. So
if you flat the 2nd note C, you have B natural, and if you sharp the 3rd note Db, you 
have D natural. This mode gives music that much more sinister and evil sound to solos.
NOTE: This theory only works for all phrygian keys!

All guitars to Bb on 7-string (Bb Eb Ab Db Gb Bb Eb)
I do not recomend tuning down to Bb on a standard 6-string guitar because if not only
sounds horrible, but makes you playing very unclean.

MAKE SURE TO CHECK TIME SIGNATURES!!!

Verse 1:
 |Fig 1_____________end Fig 1|
4/4
|--------|------|------|------|---------|--------|-----------|------------||
|o-------|------|------|------|---------|--------|-----------|-----------o||
|--------|------|------|------|---------|--------|-----------|------------||
|--------|------|------|------|---------|--------|-----------|------------||
|--2-----|------|-3----|------|-2-------|--------|-3---------|------------||
|o-2-----|------|-3----|------|-2-------|--------|-3---------|-----------o||
|--0-----|------|-1----|------|-0-------|--------|-1---------|------------||

Chorus 1:
4/4
 |Fig 2___...
|-----------------------|------------------------|----------------------|
|o----------------------|------------------------|----------------------|
|-----------------------|------------------------|----------------------|
|-----------------------|------------------------|----------------------|
|--9----(9)\-----7-9-10-|-9----(9)\----7-9--9/12-|-10--9-9\------7-9-10-|
|o-7----(7)\-----5-7--8-|-7----(7)\----5-7--7/10-|--8--7-7\------5-7--8-|
|-----------------------|------------------------|----------------------|

PM__________________________________________________________________
|---------------------------------|---------------------------------|
|---------------------------------|---------------------------------|
|---------------------------------|---------------------------------|
|---------------------------------|---------------------------------|
|---------------------------------|---------------------------------|
|---------------------------------|---------------------------------|
|-6-6-6-6-6-6-6-6-6-6-6-6-6-6-6-6-|-6-6-6-6-6-6-6-6-6-6-6-6-6-6-6-6-|

2/4                 Piano and lyrics(interlude)                    *
  ...__end Fig 2|
_______________
|---------------||--------------------|---------|--------|-------------||
|--------------o||--------------------|---------|--------|-------------||
|---------------||--------------------|---------|--------|-------------||
|---------------||--------------------|---------|--------|-------------||
|---------------||-9----(9)\----------|---------|--------|-------------||
|--------------o||-7----(7)\----------|---------|--------|-------------||
|-6-6-6--6-6-6--||--------------------|---------|--------|-------0/----||
 |_____||_____|                                          *=Bass arr. for guitar
(gallops in pattern of 
  two 16s and an 8th)

Verse 2:         Chorus 2:
                 4/4                                             2/4
|-------|-------||--------|-------|---------|---------|----------|--------|
|-------|-------||o-------|-------|---------|---------|----------|-------o|
|-------|-------||--------|-------|---------|---------|----------|--------|
|-Play Figure 1-||--------|-------|---Play-Figure-2---|----------|--------|
|-----halfway---||--------|-------|--(w/-repeat)once--|----------|--------|
|-------|-------||o-------|-------|---------|---------|----------|-------o|
|-------|-------||--------|-------|---------|---------|----------|--------|

Guitar Solo: Figure 1 played under 2 times
 |Fig 3___...
|-----------------|----------------------------------|
|o----------------|----------------------------------|
|-----------------|----------------------------------|
|-----------------|----------------------------------|
|-------------6h7-|-6-------6h7/9--(9)-9h10p9h10p9p7-|
|o/7~~~\--7-8-----|---8-7h8--------------------------|
|-----------------|----------------------------------|

|-------------------------------------------------|
|-------------------------------------------------|
|-------------------------------------------------|
|-------------------------------------------------|
|-9---(9)\----------------------------------------|
|---------------8h10--7------(7)\-----------------|
|-------------------------------------------------|

                                                          ...___end Fig 3|
 |Fig 4_________________________________________________________end Fig 4|
|-6h7p6h7-----------------------------------------------------------------|
|---------8-7h8p7h8-------7h8p7------------------------------------------o|
|-------------------9p8h9-------9p8-8h9p8h9-------------------------------|
|-------------------------------------------10-9h10p9---------9h10p9------|
|-----------------------------------------------------10p9h10--------10p9-|
|------------------------------------------------------------------------o|
|-------------------------------------------------------------------------|

Verse 3:
6/4   **
|----------|----|--------|--------|---------|--------|--------|--------|
|o---------|----|--------|--------|---------|--------|--------|-------o|
|----------|----|--------|--------|---------|--------|--------|--------|
|----------|----|--------|--------|---------|--------|--------|--------|
|--2-------|----|-3------|--------|-2-------|--------|-3------|--------|
|o-2(/7~~)-|----|-3------|--------|-2-------|--------|-3------|-------o|
|--0-------|----|-1------|--------|-0-------|--------|-1------|--------|
**=Guitar Solo note continued into verse[1st time only])

Chrous 3:
4/4                                                                2/4
|-----------|-------------|--------------|------------|-----------|-------|
|o----------|-------------|--------------|------------|-----------|------o|
|-----------|-------------|--------------|------------|-----------|-------|
|-----------|-------------|-------Play-Figure-2-------|-----------|-------|
|-----------|-------------|-------w/-repeat-once------|-----------|-------|
|o----------|-------------|--------------|------------|-----------|------o|
|-----------|-------------|--------------|------------|-----------|-------|

Outro/Guitar Solo 2:
Play Figure 1 once over
4/4
|-----|------|----|-------------------|
|-----|------|----|-------------------|
|-----|------|----|-Play-Figure-4-----|
|-----|------|----|-----once----------|
|-----|------|----|-------------------|
|-----|------|----|-------------------|
|-----|------|----|-------------------|

Play Figure 1 six times over                             Fade Out.....
|--------------|-----------|-----------|-------|--------|-------|x3----*|
|o-------------|-----------|-----------|------o|--------|o-----o|------*|
|-------Play-Figure-3------|-----------|-------|--------|-------|------*|
|--------three-times-------|-----------|-------|--------|-------|------*|
|--------------|-----------|-----------|-------|-9-(9)\-|-------|------*|
|o-------------|-----------|-----------|------o|-7-(7)\-|o-----o|------*|
|--------------|-----------|-----------|-------|--------|-------|------*|

            
            
Suggest correction
Creating personal tab
Creating personal tab
You can edit any tab online and save it as your Personal.

You can edit, replace or remove any tab part or add personal notes – all changes will be seen only by you.

Personal tabs can be accessed anytime from any device, even offline.
Learn more »
comments
print report bad tab
4 comments total. Showing first comments.
0 reply
caboose243 20 Jul 28, 2011 10:35 AM

solid tab! only part i think is off is the pm 6's i think you pm and pick the power chord on the 8th

0 reply
caboose243 20 Jul 28, 2011 10:38 AM

i was wrong sorry about that! the 6's are correct

0 reply
Idmonas 31 Jul 28, 2012 04:01 AM

hello! first time i post a tab so i hope i do it right (i think the solo needs some corrections) pls check it out



-6h5p6-----------------------------------------------------------
------8-7h8p7-----7h8p7------------------------------------------
-------------9-8h9-----9-8h9-8h9p8-------8h9p8-------------------
----------------------------------10-9h10-----10-9h10-9h10p9-----
------------------------------------------------------------10h9-
-----------------------------------------------------------------

guest
You may want to rate the tab now too:
select rating
Wanna post a correction for this tab? Suggest correction