Oops, an error
Loading. Please wait.

Alma Llanera Tab

614 views 12 this week
no commentswrite comment
1 2 3 4 5
3 more votes to show rating
add to favorites
launch autoscroll
font size
0
reset
how to read this tab
guitar tuner
×
Best way to learn
"Alma Llanera"
Autoscroll
slow
fast
+/-
esc
set tempo
stop
Ritmo Joropo
Tonalidad: La mayor


Intro
  A          D           E          A    D   E
e|--------0---2-5-0--4-2-0------------0--2-5-0--4-2-0--------
B|------2---3--------------3-2-0-----2--3-------------3-2-0--
G|----2--------------------------2--------------------------2.
D|-----------------------------------------------------------
A|-----------------------------------------------------------
E|-----------------------------------------------------------

A                          D          E7
 Yo nací en una rivera del Arauca vibrador

e|-0-0-5---4--7---5--9-7-5-4-7-5-4---2---4------------------2
B|--------------------------------------------------------2-3
G|---------------------------------------------------1-2-4---
D|------------------------------------------------2-4--------

 D                     E7
  soy hermano de las espuma

e|-2-2---5---5----5----5-4-0--------------------------------2
B|--------------------------------------------------------2-3
G|---------------------------------------------------1-2-4---
D|------------------------------------------------2-4--------


 D                      E7
   de las garzas de las rosas

e|-2-2---5---5----5----5-4-0--------------------------------2
B|--------------------------------------------------------2-3
G|---------------------------------------------------1-2-4---
D|------------------------------------------------2-4--------

 D                     E7
   soy hermano de la espuma

e|-2-2---5---5----5----5-4-0--------------------------------2
B|--------------------------------------------------------2-3
G|---------------------------------------------------1-2-4---
D|------------------------------------------------2-4--------

         D              A
  de las garzas, de las rosas

e|-0--0--2--------------0------------
B|----------3----3---3------2--------


       E7           A
 y del sol... y del sol

e|------0----------------------------
B|-3-0--------3----------------------
G|---------------4--2----------------


Ahora juega con los bajos...

A  D  E   A  D E   A

                                  D              E7
   Me arrulló la vida diana de la brisa en el palmar
e|-0----0---5---4-7-5--9-7---5-4-7-5--------4---2--4----------2
B|----------------------------------------------------------2-3
G|-----------------------------------------------------1-2-4---
D|--------------------------------------------------2-4--------

D                   E7
   y por eso tengo el alma

e|-2-2---5---5----5---5-4-0-----------------------------------2
B|----------------------------------------------------------2-3
G|-----------------------------------------------------1-2-4---
D|--------------------------------------------------2-4--------

D                  E7
  como el alma primorosa

e|-2-2---5--5---5--5-4-0--------------------------------------2
B|----------------------------------------------------------2-3
G|-----------------------------------------------------1-2-4---
D|--------------------------------------------------2-4--------

D                   E7
 y por eso tengo el alma

e|-2-2---5--5---5--5-4-0--------------------------------------2
B|----------------------------------------------------------2-3
G|-----------------------------------------------------1-2-4---
D|--------------------------------------------------2-4--------

         D        A
 como el alma primorosa

e|-0--0--2--------0-------------------
B|---------3-3--3---2-----------------

        E7             A
 del cristal... del cristal

e|-------0----------------------------
B|-3--0--------3----------------------
G|------------------4--2--------------

        D          E7       A
  Amo...  lloro... canto... sueño

e|-0-0----2-2------4-4------5-5--------
B|-2-2----3-3------5-5------5-5--------
G|-2-2----2-2------4-4------6-6--------

                    E7
  Con claveles de pasión

e|-9--5--7-4---5--2--------------------
B|------------------3------------------
                    A
  Con claveles de pasión

e|-7--4--5-2---4-----------------------
B|------------------0------------------

                        E7
  para ornar las bellas crines

e|-0--0--0--0---3--2---0---------------
B|------------------------0------------

                    A
  al potro de mi amador

e|-------------------------------------
B|-3-3--3--3--2----0-------------------
G|-------------------2-----------------

                   E7
  Yo nací en una rivera
e|-0--0--0--0--3-2-0-------------------
B|-------------------0-----------------

                  A
  Del Arauca vibrador

e|-------------------------------------
B|-3---3-3-3-2-0-----------------------
G|----------------2--------------------

                      E7
  soy hermano de la espuma...
e|-0--0--0--0--3--2-0-------------------
B|--------------------0-----------------

            A             D          E7  A
  de las garzas... de las rosas... y del sol...
e|----------0------2--4---5-9------7-0---5
B|-0-2---3--------------------------------


Intro y después

Me arrullo la vida diana de la brisa en el palmar...

-Hasta el final...
Suggest correction
Give kudos to tab author, rate the tab!
1 2 3 4 5
comments
print report bad tab
guest
You may want to rate the tab now too:
select rating
Wanna post a correction for this tab? Suggest correction