Oops, an error
Loading. Please wait.

Amame Siempre Tab

26 views 1 this week
no commentswrite comment
1 2 3 4 5
3 more votes to show rating
add to favorites
launch autoscroll
font size
0
reset
how to read this tab
guitar tuner
×
Best way to learn
"Amame Siempre"
Autoscroll
slow
fast
+/-
esc
set tempo
stop
AMAME SIEMPRE
(Jesús Moreno)
Autor: Jesús Moreno, el ?rey del pasaje?
Tunning: G
Ritmo: Vals-pasaje
Revuelta:
Dm7   G7              C                                       G
e ------12--10-8-12---------------12---12--12-14-12-10-8--12-10-|
B -----8-------------8---------8------8-------------------------|
G ----9-----11-9-----9--------9------9-----13-------12-10-------|
D --10---------------10-----10----------------------------------|
A -------------------10---10------------------------------------|
E -8-------------8-------8--------------------------------8--7--|
                                                D7
e -----10-------10-7-------10---10-12-10-8-7-10-8-----8-7-5-8-5-|
B ---12---13-12-----------7----7---------------------7----------|
G -12--------------7-----8----8------------8----7---7-----------|
D --------14-12-12------9--------------------------7------------|
A --------------------10----------------------------------------|
E -------------------7--------------------------------------5-3-|
                                                                 G
e ------8---8-10-8-7---5-8-7-|
B -----7---7----------7----8-|
G ----5---5----------7-----7-|  se repite dos veces
D ---7-----------------------|
A --5------------------------|
E -5-------------------------|
El siguiente punteo es de la estrofa, pero se repite dos veces:
  G                                                               D7
e -------10-7-8-10-12-10-8-8-7-7-10-----7-8-7-7-------7------5-------|
B ------8----------------------------7-8--------10-8-8--5-7-8-8-5-7--|
G -----7-------------------------------------------------------------|
D ----9--------------------------------------------------------------|
A --10---------------------------------------------------------------|
E -7-----------------------------------------------------------------|
                                                                D7 G
e ------8-8-------12-14-12-8-10-10---8-10-12-10-7-8-8---7-8-10-8-5-7-|
B -----7--------10-----------------12----------------10----------7-8-|
G ----7-------11-------------------------------------------------5-7-|
D ---7------12-------------------------------------------------------|
A --9----------------------------------------------------------------|
E -7-----------------------------------------------------------------|


Estrofa:

G
Que se apaguen las estrellas,
Que las flores no me brinden;
                  D7
Su perfume y su color.
Pero que nunca me falte,
La ternura de tus manos,
                   G
Ni la dicha de tu amor.

Yo quiero ser en tu vida,
Tú esperanza tu camino,
                  D7
Motivo de tu ilusión
Y siempre nos amaremos,
En la playa en la montaña,
                     G
Y en el nido de los dos.


Revuelta:

G7         C
Ámame siempre?.
            C9          D9           G
Que en esta vida lo que vale es el amor,
           Gsus4 G
Yo soy tu due -  ño,
                                        D7
Tú eres mi dueña, la que me entiende mejor,
Y así andaremos por los caminos
                  G
De la vida sin temor. (Bis)


Revuelta y estrofa punteada

Estrofa:

G
Si apretara entre mis brazos,
Recobras todo tu aliento,
                    D7
Y así te sientes mejor,
Si en tu cuerpo sientes frío,
Mis labios te darán fuego.
                    G
Y encenderán tu emoción.

A mi lado nunca temas,
Pues toda mi juventud,
                   D7
Te dará su protección.
Y cuando venga el otoño,
Pasearemos por el campo,
                     G
Libres de toda opresión.

Revuelta:

G7         C
Ámame siempre?.
        C9            D9          G
Y no le temas nunca a la murmuración,
Seamos felices,
                                    D7
Y al mundo entero, gritemos con altavoz.
Que amor y paz, entre los hombres
                       G
Es lo que ha mandado Dios. (Bis)


Final:

  G7              C          D7  G
e -12-10-8-10-12-12-14-12-10-8-8-7-|
B -------------------------------8-|
G ------------------14-12-11-9-9-7-|
D ---------------------------------|
A ---------------------------------|
E ---------------------------------|

Esta tablatura se la dedico a una niña muy hermosa,
inspiración para editar este tab: Andrea Botía.
Suggest correction
Give kudos to tab author, rate the tab!
1 2 3 4 5
comments
print report bad tab
guest
You may want to rate the tab now too:
select rating
Wanna post a correction for this tab? Suggest correction