Oops, an error
Loading. Please wait.

Pass The Dutchie Bass Tab

5,909 views 18 this week
no commentswrite comment
1 2 3 4 5
x 4
add to favorites
launch autoscroll
font size
0
reset
guitar tuner
Autoscroll
slow
fast
+/-
esc
set tempo
stop
Help us to improve Ultimate-Guitar.com Take our survey!
×
Difficulty
novice
----------------------------------------------------------------------------
			                           PASS THE DUTCHIE - Musical Youth
----------------------------------------------------------------------------
Tabbed By : Jacob!
e-mail: Chansee300@hotmail.com

Tuning: Standard (EADG)


G|------------------|
D|----------5-5-----|
A|--3--3--3-----5---|
E|----5-5-----------|

"I said Listen to the drummer, I said listen to the Bass"

G|------------------|
D|---5-5555-3-------|
A|------------5--3--|
E|------------------|


| /  slide up
| \  slide down
| h  hammer-on
| p  pull-off
| ~  vibrato
| +  harmonic
| x  Mute note
Suggest correction
comments
print report bad tab
guest
You may want to rate the tab now too:
select rating
Wanna post a correction for this tab? Suggest correction