Oops, an error
Loading. Please wait.

Kahanga - Hanga Tab

19 views 1 this week
no commentswrite comment
1 2 3 4 5
3 more votes to show rating
add to favorites
launch autoscroll
font size
0
reset
how to read this tab
guitar tuner
Autoscroll
slow
fast
+/-
esc
set tempo
stop
Help us to improve Ultimate-Guitar.com Take our survey!
×
Kahanga - hanga 
By: Musikatha

[Guitar Solo]
e|---------------------------------------------------------------------17-19-21-21b22--19-|
B|--15b17--15b17--15-14--------------------------------17b19--17-17/19--------------------|
G|----------------------16-------14-16b18--16-14-13---------------------------------------|
D|-------------------------14/16---------------------14-----------------------------------|
A|----------------------------------------------------------------------------------------|
E|----------------------------------------------------------------------------------------|

e|--16p17--16-----------------------------------------------------------------------------|
B|-----------17---------------------------------------------------------------------------|
G|--------------16-------------16-14-13-14-16-18-16-------------14-16-16b18--16p14-----14-|
D|-----------------18-18-19-18----------------------------14-16--------------------16-----|
A|--------------------------------------------------14-16---------------------------------|
E|----------------------------------------------------------------------------------------|

e|------------------17-17----17/19--16p17--16------------------------|
B|------------14-15-------15----------------17-------17/19--17-15-14-|
G|--16b18--14----------------------------------16--------------------|
D|------------------------------------------------18-----------------|
A|-------------------------------------------------------------------|
E|-------------------------------------------------------------------|
 

************************************

| p  Pull-off
| b  Bend
| /  Slide up

************************************
Suggest correction
Give kudos to tab author, rate the tab!
1 2 3 4 5
comments
print report bad tab
guest
You may want to rate the tab now too:
select rating
Wanna post a correction for this tab? Suggest correction