Oops, an error
Loading. Please wait.

Halfcrazy tab

version 1
version 1

Whole song

by Musiq
1,395 views 1 this week
2 commentsread comments
1 2 3 4 5
x 3
add to favorites
×
Save as Personal and add changes to this tab that will be seen only by you. Learn more ›
×
You can save this tab as Personal to edit and correct it or add notes. All changes will be seen only by you. Learn more »
launch autoscroll
font size
0
reset
how to read this tab
guitar tuner
edit
Autoscroll
slow
fast
+/-
esc
set tempo
stop
E-3-3-3-3-3-1-3s6-6-6-6-6-4--3--3-3--3--3-1-3-----------------------|
B-------------------------------------------------------------------|
G---------------------------------------------0---------------------|
D-------------------------------------------------3---0-------------|
A-----------------------------------------------------------2-------|
E-------------------------------------------------------------------|

Repeated through the whole song.

The other tabs submitted for this song were so bad I almost cried.
Please, don't tab if you don't know how to do it.  Rich Money to the
rescue...AGAIN.  One.

            
            
Suggest correction
Creating personal tab
Creating personal tab
You can edit any tab online and save it as your Personal.

You can edit, replace or remove any tab part or add personal notes – all changes will be seen only by you.

Personal tabs can be accessed anytime from any device, even offline.
Learn more »
Give kudos to tab author, rate the tab!
1 2 3 4 5
comments
print report bad tab
2 comments total.
0 reply
sevenonezero 10 Dec 20, 2002 07:00 PM

that was horrible!

E--------------5-5-5-5--
B-7-7-7-7-7--5----------5--7-7-7-7-7-5-7
G
D
A
E

0 reply
sevenonezero 10 Dec 20, 2002 07:00 PM

E----------------5-5-5-5---------------
B-7-7-7-7-7---5-----------5---7-7-7-7-7-5-7
G
D
A
E

guest
Wanna post a correction for this tab? Suggest correction