Oops, an error
Loading. Please wait.

Alone Bass Tab

212 views 1 this week
no commentswrite comment
1 2 3 4 5
please rate
add to favorites
launch autoscroll
font size
0
reset
guitar tuner
Autoscroll
slow
fast
+/-
esc
set tempo
stop
Help us to improve Ultimate-Guitar.com Take our survey!
×
Author
part1
G------------------|
D---------777-5555-|
A---57875----------|
E-58-----8---------|

part2
G--------------------|
D--------------------|
A-----------222-3-32-|
E-0000-0000----------|

part3
G-----------------------------|
D------------------------2323-|
A------111-1-1-11------33-----|
E-0-00------------3-33--------|

finish
G----
D----
A----
E-0~-  ~ let ring

order:
part1 12X
part2  4X
part1 12X
part2  4X
part3  9X
part1 12X
part2  4X
finish 1X

thats all.. have fun..
  xxSID
Suggest correction
Give kudos to tab author, rate the tab!
1 2 3 4 5
comments
print report bad tab
guest
You may want to rate the tab now too:
select rating
Wanna post a correction for this tab? Suggest correction