Oops, an error
Loading. Please wait.

Away From Here Bass Tab

188 views 1 this week
no commentswrite comment
1 2 3 4 5
3 more votes to show rating
add to favorites
launch autoscroll
font size
0
reset
guitar tuner
Autoscroll
slow
fast
+/-
esc
set tempo
stop
Help us to improve Ultimate-Guitar.com Take our survey!
×
Difficulty
novice
By:The Evster

Intro:
G|---------------------------------------------------------------------------|
D|---------------------------------------------------------------------------|
A|-----7--7------5--5-4--4-5--5------7---------------------------------------|
E|5--5------5--5----------------5--5-----------------------------------------|

Verse 1:
G|------------------------------------------| |------------------------------|
D|-----667799-----------------77------------| |------------------------------|
A|---77----------5-4-2-4-4>-5>---7----5>-7>-| |---5>----7>-4>-5>----5>-7>----|
E|5>----------5>-------------------5>-------| |5>----5>----------5>----------|

Chorus:
G|---------------------------------------------------------------------------|
D|---------------------------------------------------------------------------|
A|5>----7>-4>-5>-------------------------------------------------------------|
E|---5>----------------------------------------------------------------------| 
Suggest correction
Give kudos to tab author, rate the tab!
1 2 3 4 5
comments
print report bad tab
guest
You may want to rate the tab now too:
select rating
Wanna post a correction for this tab? Suggest correction