Oops, an error
Loading. Please wait.

Ball Park Skank Bass Tab

171 views 1 this week
no commentswrite comment
1 2 3 4 5
please rate
add to favorites
launch autoscroll
font size
0
reset
guitar tuner
Autoscroll
slow
fast
+/-
esc
set tempo
stop
Help us to improve Ultimate-Guitar.com Take our survey!
×
Author
Difficulty
intermediate
Ball Park Skank
Mustard Plug
Big Daddy Multitude


Intro
G|-----------------------------------------------------------------|
D|-----------------------------------------------------------------|
A|-2---1---2---1---3---2--3---2---4---3---4---3---5---4--5---4--5~-|
E|--2-4-----2-4-----3-5----3-5-----4-6-----4-6-----5-7----5-7------|


Part 1
G|-----------------------------------------------|
D|----4-------------------------4----------------|
A|-5-5-----5h7-7-7-----------5-5-----5h7-7-7-----|
E|------7-7--------5h7p5----------7-7--------5-5-|


Part 2
G|----------------------------------|
D|----------------------------------|
A|----------------------------------|
E|-33333333-5-5-5-5-33333333-5-5-6-7|

Part 3
G|---------------------------------------------------|
D|---------------------------------------------------|
A|---------------------------------------------------|
E|-5555-6666-5555-6666-8--7777--5555-6666-5555-6666-8|

Part 4 [Breakdown/Distortion Guitar]
G|----------------------------------|
D|----------------------------------|
A|----------------------------------|
E|-7777-8888-7777-8888-7777-8888-10-|

END

Suggest correction
Give kudos to tab author, rate the tab!
1 2 3 4 5
comments
print report bad tab
guest
You may want to rate the tab now too:
select rating
Wanna post a correction for this tab? Suggest correction