Oops, an error
Loading. Please wait.

Hit Me Hit Me Bass Tab

248 views 1 this week
no commentswrite comment
1 2 3 4 5
2 more votes to show rating
add to favorites
launch autoscroll
font size
0
reset
guitar tuner
Autoscroll
slow
fast
+/-
esc
set tempo
stop
Help us to improve Ultimate-Guitar.com Take our survey!
×
-------------------------------------------------------------------------------
                                               Hit Me! Hit Me! - Mustard Plug
-------------------------------------------------------------------------------
My favorite song off of their most recent album
Tabbed by: 
E-mail: 

Tuning:EADG

Intro
G|---------------------------------------------------------------------------|
D|--------------------------4--2-4-2-----------------------------------------|
A|---99999\0-----------4--4----------4-2-0--4-5-4-2-0------------------------|
E|-----------------5-5---------------------------------2-2-2-4-5-------------|

Verse 
G|----------------------------------------|-----------------------------------------|
D|----------------------4-------4--------o|----------------------4-0-------4-0------|
A|-------4-5-4-7-5-4------4---4---4---4--o|------4-5-4-7-5-4---------4-5------------|
E|-----5-------------5------5-------------|----5-------------5-----------5-----5----|

Pre-chorus
G|---------------------------------------------------------------------------|
D|-----------4---2----7--6--4--6---------------------------------------------|
A|---------------------------------------------------------------------------|
E|----5---4------------------------------------------------------------------|

Bridge
G|---------------------------------------------------------------------------|
D|---------------------------------------------------------------------------|
A|----5-5-5--4-4-2-2--5-5-5--7-5-4-2--5-5-5--4-4-2-2--5-4-2/-77777-----------|
E|---------------------------------------------------------------------------|

Chorus
G|---------------------------------------------------------------------------|
D|---------------------------------------------------------------------------|
A|---------5-5-----------------5-5-------------------------------------------|
E|-----5--5------2-2-2--4-5--5------2-2-2-4-5--------------------------------|

Solo
G|---------------------------------------------------------------------------|
D|-------------4--2-4-2------------------------------------------------------|
A|--------4--4----------4-2-0--4-5-------------------------------------------|
E|----5-5--------------------------7-5---2-2-2-4-5---------------------------|
Suggest correction
Give kudos to tab author, rate the tab!
1 2 3 4 5
comments
print report bad tab
guest
You may want to rate the tab now too:
select rating
Wanna post a correction for this tab? Suggest correction