Oops, an error
Loading. Please wait.

Mendoza Tab

596 views 1 this week
no commentswrite comment
1 2 3 4 5
excellent!
x 3
add to favorites
launch autoscroll
font size
0
reset
how to read this tab
guitar tuner
Autoscroll
slow
fast
+/-
esc
set tempo
stop
Help us to improve Ultimate-Guitar.com Take our survey!
×
Author
Difficulty
novice
Artist: Mustard Plug
Song: Mendoza
Album: Evildoers Beware.

Noticed this song wasn't tabbed out so here is my tab to Mendoza.
If you like please rate, and if you have any requests feel free to ask!

INTRO

    A     G     C            G      A     G     C
E---5-5---7-7---8--8--8--8---7------5-5---7-7---8-------------|
B---5-5---8-8---8--8--8--8---8------5-5---8-8---8-------------|
G---6-6---7-7---9--9--9--9---7------6-6---7-7---9---MENDOZA!--|
D---7-7---------10-10-10-10---------7-7---------10------------|
A-------------------------------------------------------------|
E-------------------------------------------------------------|


CHORUS
                                                   triple 3X
    A     G     C            G      A     G     C  |-----|   G
E---5-5---7-7---8--8--8--8---7------5-5---7-7---8--8--8--8---7--|
B---5-5---8-8---8--8--8--8---8------5-5---8-8---8--8--8--8---8--|
G---6-6---7-7---9--9--9--9---7------6-6---7-7---9--9--9--9---7--| REPEAT
D---7-7---------10-10-10-10---------7-7---------10-10-10-10-----|
A---------------------------------------------------------------|
E---------------------------------------------------------------|

VERSE

    B            F#           D                  A
E---7-7-7-7-7-7--6-6-6-6-6-6--10-10-10-10-10-10--9--9--9--9--9--9----|
B---7-7-7-7-7-7--7-7-7-7-7-7--10-10-10-10-10-10--10-10-10-10-10-10---|
G---8-8-8-8-8-8--6-6-6-6-6-6--11-11-11-11-11-11--9--9--9--9--9--9----|
D---9-9-9-9-9-9---------------12-12-12-12-12-12----------------------|
A--------------------------------------------------------------------|
E--------------------------------------------------------------------|

    B            F#           D                  A     G#  G   F#
E---7-7-7-7-7-7--6-6-6-6-6-6--10-10-10-10-10-10--9--9--8-8-7-7-6-6---|
B---7-7-7-7-7-7--7-7-7-7-7-7--10-10-10-10-10-10--10-10-9-9-8-8-7-7---|
G---8-8-8-8-8-8--6-6-6-6-6-6--11-11-11-11-11-11--9--9--8-8-7-7-6-6---|
D---9-9-9-9-9-9---------------12-12-12-12-12-12----------------------|
A--------------------------------------------------------------------|
E--------------------------------------------------------------------|


Breakdown
(Have Hand in A while muting)
                                           A      Then continue with mute.
E---X-X-X--X--X-X--X--X-X--X--X-X--X--X-X--5------------------------------|
B---X-X-X--X--X-X--X--X-X--X--X-X--X--X-X--5------------------------------|
G---X-X-X--X--X-X--X--X-X--X--X-X--X--X-X--6------------------------------|
D---X-X-X--X--X-X--X--X-X--X--X-X--X--X-X--7------------------------------|
A---X-X-X--X--X-X--X--X-X--X--X-X--X--X-X---------------------------------|
E---X-X-X--X--X-X--X--X-X--X--X-X--X--X-X---------------------------------|






Enjoy!
Suggest correction
Give kudos to tab author, rate the tab!
1 2 3 4 5
comments
print report bad tab
guest
You may want to rate the tab now too:
select rating
Wanna post a correction for this tab? Suggest correction