Oops, an error
Loading. Please wait.

Miss Michigan Bass Tab

version 2
version 2

Whole song

130 views 1 this week
1 commentread comment
1 2 3 4 5
2 more votes to show rating
add to favorites
launch autoscroll
font size
0
reset
guitar tuner
Autoscroll
slow
fast
+/-
esc
set tempo
stop
Help us to improve Ultimate-Guitar.com Take our survey!
×
Author
Tabbed By : CauseAhRiot
E-mail: clarke.tom13@yahoo.com

Song: Miss Michigan
Artist: Mustard Plug
Album: Evildoers Beware!

Tuning: Standard; E,A,D,G

Intro/Outro
G|--------------------------------------------------|
D|--------------------------------------------------|
A|-----8-88------10-1010-----8-88--10--10--10-8-7-5-|
E|-8-8-------8-8---------8-8------------------------|

Verse
G|-----------------------------------|
D|-----------7----9------------------|
A|---7-10-7-8---10----7-10-7-8-7-5-7-|
E|-8----------------8----------------|

Chorus
G|---------------------------------------------------|
D|-----------4-7-4---6-9-6---4-7-4-----------4-7-4---|
A|---4-7-4-5-------7-------5---------4-7-4-5-------7-|
E|-5-------------------------------5-----------------|

Bridge
G|----------------|
D|----------------|
A|----8-810-108-8-|
E|-8-8------------|

Outro
G|-----------------------------------------------------|
D|-----------------------------------------------------|
A|-----8-88------10-1010-----8-88--10--10--10-8-7-5----|
E|-8-8-------8-8---------8-8------------------------8*-|


Intro
Verse
Chorus
Verse
Chorus
Bridge
Intro
Verse
Chorus
Outro
Suggest correction
Give kudos to tab author, rate the tab!
1 2 3 4 5
comments
print report bad tab
1 comment total.
0 reply
CauseAhRiot 92 Mar 12, 2012 07:27 PM

I guarantee this is 100% absolutely correct.

guest
You may want to rate the tab now too:
select rating
Wanna post a correction for this tab? Suggest correction