Oops, an error
Loading. Please wait.

Over The Edge Tab

336 views 3 this week
no commentswrite comment
1 2 3 4 5
please rate
add to favorites
launch autoscroll
font size
0
reset
how to read this tab
guitar tuner
Autoscroll
slow
fast
+/-
esc
set tempo
stop
Help us to improve Ultimate-Guitar.com Take our survey!
×
Mustard Plug
In Black and White
Over The Edge


Intro:
---------------------|
---------------------|
-----7-6-4-7-6-4-6---|
---6-7-6-4-7-6-4-6---|
---6-5-4-2-5-4-2-4---| x1
---4-----------------|


Intro 2:
-----------------------------------------------------------------|
-----------------------------------------------------------------|
-----------------------------------------------------------------|
-----6644------------6644--44--4466--6644------------6644--4-5---|
---------6644224455------66--66----------6644224455------66------|
---44--------------44--------------44--------------44------------|


Verse:
---x-4-x-4-x-4-x-4-x-5-x-5-x-5-x-5---|
---x-4-x-4-x-4-x-4-x-7-x-7-x-7-x-7---|
---x-5-x-5-x-5-x-5-x-7-x-7-x-7-x-7---|
---x-6-x-6-x-6-x-6-------------------|
-------------------------------------|x4
-------------------------------------|


Chorus:
----------------------|
----------------------|
------------7-6-4-6---|
---6--------7-6-4-6---|
---6--(x24)-5-4-2-4---|
---4------------------|
   pm


Bridge 1:
---x-4-x-4-x-4-x-4-x-2-x-2-x-2-x-2---|
---x-6-x-6-x-4-x-4-x-4-x-4-x-3-x-3---|
---x-6-x-6-x-5-x-5-x-4-x-4-x-2-x-2---|
-----------x-6-x-6---------x-4-x-4---|
-------------------------------------| x2
-------------------------------------|


-------------------------------------|
-------------------------------------|
---6-6-6-6---------4-4-4-4-7-7-7-7---|
---x-x-x-x-6-6-6-6-x-x-x-x-x-x-x-x---|
---4-4-4-4-x-x-x-x-2-2-2-2-5-5-5-5---| x2
-----------4-4-4-4-------------------|


-------|
-------|
-------|
---6---|
---6---| Hold Out for 4 measures
---4---|


Bridge 2:
----------------------|
----------------------|
-----77664477664466---|
---66-----------------|
----------------------| x4
----------------------|


Chorus 2:
---------------------|
---------------------|
-----------6-6-7-7---|
---6-6-6-6-6-6-7-7---|
---6-6-6-6-4-4-5-5---| x4
---4-4-4-4-----------|


SONG ORDER
Intro
Intro 2
Verse
Chorus
Verse (x3)
Chorus
Verse
Bridge 1
Bridge 2
Chorus
Verse
Chorus 2
Intro
Suggest correction
Give kudos to tab author, rate the tab!
1 2 3 4 5
comments
print report bad tab
guest
You may want to rate the tab now too:
select rating
Please do not post tabs as comments. Select "correction" instead!