Oops, an error
Loading. Please wait.

Puddle Of Blood Bass Tab

196 views 3 this week
no commentswrite comment
1 2 3 4 5
please rate
add to favorites
launch autoscroll
font size
0
reset
guitar tuner
Autoscroll
slow
fast
+/-
esc
set tempo
stop
Help us to improve Ultimate-Guitar.com Take our survey!
×
Mustard Plug - Puddle of blood


G:------------*5----------------------|
D:--------------*5--------------------|
A:-3-----23-------03-----23-3/66665\--|
E:----233-------------233-------------|

G:-----------------------6----------------------------|
D:-------5---------5----6------5----------5-----------|x 2
A:---3-36----2-3-36---3----3-36-----2-3-36-66665\-----|
E:---------33---------------------33------------------|

G:----------------------------------------------|
D:----------------------------------------------|
A:----------------------------------------------|
E:----------------------------------------------|

G:------------------------6-----------------------------|
D:----------5---------5----6-----5----------5-----------|
A:-6\5--3-36----2-3-36---3---3-36-----2-3-36-66665\-----|
E:------------33--------------------33------------------|

G:------------------------6-----------------------------|
D:----------5---------5----6-----5----------5-----------|
A:------3-36----2-3-36---3---3-36-----2-3-36-66665\-----|
E:------------33--------------------33------------------|

G:--------------------------------------------------------5----|
D:----8------10----------5-55------8------10-----------5-5--5--|
A:-6-6--6-8-8---8--3-36-6----6656-6--6-8-8---8---3-36-6--------|
E:-------------------------------------------------------------|

G:-------------------------55----------------------------------------|
D:----8------10---------5-5------8------10---------------------------|
A:-6-6--6-8-8---8-3-36-6------6-6--6-8-8---8-------------------------|
E:-------------------------------------------------------------------|

G:------------------------6-----------------------------|
D:----------5---------5----6-----5----------5-----------|
A:------3-36----2-3-36---3---3-36-----2-3-36-66665\-----| x4
E:------------33--------------------33------------------|

G:--------------------------------------------------------5----|
D:----8------10----------5-55------8------10-----------5-5--5--|
A:-6-6--6-8-8---8--3-36-6----6656-6--6-8-8---8---3-36-6--------|
E:-------------------------------------------------------------|

G:-------------------------55----------------------------------------|
D:----8------10---------5-5------8------10---------------------------|
A:-6-6--6-8-8---8-3-36-6------6-6--6-8-8---8-------------------------|
E:---------------------------------------------33333333333333333-----|

G:-----------------------------------------------|
D:-----------------------------------------------| x3
A:-3(*8)5(*8)6(*8)5(*8)--------------------------|
E:-----------------------------------------------|

G:------------------------------------------------------------------|
D:----5------7------8------7------5------7------8-----7-------------|
A:-3-3--3-5-5--5-6-6--6-5-5--5-3-3--3-5-5--5-6-6--6-5--5-3333-3333--|
E:------------------------------------------------------------------|


G:-------------------------------------5-------------------|
D:-------5-5------8------10---------5-5--5----8------10----|
A:-3-36-6---65-6-6--6-8-8---8-3-36-6-------6-6--6-8-8---8--|
E:---------------------------------------------------------|

G:----------55------------------------|
D:-------5-5------8------10-----------|
A:-3-36-6------6-6--6-8-8---8---------|
E:------------------------------------|

G:-------------------------------|
D:-------------------------------| x3
A:-333333333333--22333333333333--|
E:-------------33----------------|

G:----------------------------------------------|
D:----------------------------------------------|
A:-3333333333333333666655--3--------------------|
E:----------------------------------------------|

tabbed by maarten kerkhofs (bassist of grandma's concrete monkey)
Suggest correction
Give kudos to tab author, rate the tab!
1 2 3 4 5
comments
print report bad tab
guest
You may want to rate the tab now too:
select rating
Wanna post a correction for this tab? Suggest correction