Oops, an error
Loading. Please wait.

Sadie May Bass Tab

56 views 1 this week
no commentswrite comment
1 2 3 4 5
please rate
add to favorites
launch autoscroll
font size
0
reset
guitar tuner
Tab Pro tools
  • play this tab
  • loop segment
  • change instrument
  • show fretboard
  • metronome
×
Best way to learn
"Sadie May"
Autoscroll
slow
fast
+/-
esc
set tempo
stop
Contributor
Difficulty
novice
-------------------------------------------------------------------------------
                             SADIE MAY - Mustard Plug
-------------------------------------------------------------------------------
Tabbed by: Straight Dave

Let's get skankin'!

Tuning: EADG

INTRO
G|----------------------------------|
D|-0-0---0-2-5-5-5-5-4-2------------|
A|-----2-------------------|    x 2-|
E|----------------------------------|
THEN
G|---------|
D|---------|
A|---------|    x 4
E|-3-7-5---|


VERSE
G|---------------------------|
D|-0-0---0-2-5-5-5-5-4-2-----|
A|-----2---------------------|
E|---------------------------|

CHORUS
G|---------|
D|---------|
A|---------|
E|-3--5----|

The bridge is the same as the verse line. Great song nice and simple. Fun to skank to, too.
Skank on!
comments
We did not receive enough feedback on this tab! Please rate:
print report bad tab
1 2 3 4 5
I want to post or [tab]
guest
You may want to rate the tab now too:
select rating
Please do not post tabs as comments. Select "correction" instead!