Oops, an error
Loading. Please wait.

Someday Right Now Bass Tab

version 1
version 1

Whole song

Interactive

358 views 1 this week
no commentswrite comment
1 2 3 4 5
2 more votes to show rating
add to favorites
launch autoscroll
font size
0
reset
guitar tuner
Autoscroll
slow
fast
+/-
esc
set tempo
stop
Help us to improve Ultimate-Guitar.com Take our survey!
×
Author
~ let ring

intro
G-----------------------------------------------------------------|
D-----------------------------------------------------------------|
A-----------------222-222-222-222-333-333-333-333-555-555-555-555-|
E-333-333-333-333-------------------------------------------------|

G---------------------------------------------|
D---------------------------------------------|
A----2~-3~-5~----2~-3~-5~---------------------|
E-3~----------3~----------33-3-33-3-33-3-33-3-|

part1
G-------------------------------------------------------------|
D-------------------------------------------------------------|
A-2222-2222-2222-2222-3333-3333-3333-3333-5555-5555-5555-5555-|
E-------------------------------------------------------------|

part2
G---------------------------------------------------------------------------------|
D----------------------------------------------2222-------------------------------|
A---------------------2222-5555-3333-2222-3333------5555-3333-5555----------------|
E-3333-3333-3333-3333----------------------------------------------2222-3333-5555-|

repeat part2

part3
G-------------------------------------------------------------------------|
D-------------------------------------------------------------------------|
A-33-3333-5555-5555-------------------33-3333-5555-5555-------------------|
E-------------------33-3333-3333-3333-------------------33-3333-3333-3333-|

G---------------------------------------------------------------------|
D---------------------------------------------------------------------|
A-33-3333-5555-5555----------5~-33-3333-3333-3333-5555-5555-5555-5555-|
E-------------------3~-2~-0~------------------------------------------|

part4
G-------------------------------------------------------------------------|
D-5555----------------5555----------------5555----------------5555--------|
A------2222-3333-5555------2222-3333-5555------2222-3333-5555------2222-3-|
E-------------------------------------------------------------------------|

part5
G---------------------|
D---------------------|
A---------------------|
E-3333-3333-3333-3333-|

repeat part1
repeat part2 2X
repeat part3

part6
G---------------------------------------------------------------------------------|
D-5555----------------5555----------------5555----------------5555----------------|
A------2222-3333-5555------2222-3333-5555------2222-3333-5555------2222-3333-5555-|
E---------------------------------------------------------------------------------|

finish                       2X
G------------------------------|
D------------------------------|
A--------22-222-33-333-55-5555-|
E-33-333-----------------------|
                                                                        3X
G-------------------------------------------------------------------------|
D-------------------------------------222-222-2222-2222-------------------|
A-------------------555-555-5555-5555-------------------333-333-3333-3333-|
E-333-333-3333-3333-------------------------------------------------------|

G---------------------------------------------------------------------------------|
D-5555-5555-5555-5555---------------------2222-2222-2222-2222---------------------|
A---------------------5555-5555-5555-5555---------------------3333-3333-3333-3333-|
E---------------------------------------------------------------------------------|

G--------------------------------------------------------------------------|
D-------------------------------------222-222-2222-2222--------------------|
A-------------------555-555-5555-5555-------------------333-333-3-3-3-3----|
E-333-333-3333-3333-----------------------------------------------------3~-|

thats all.. have fun..
plz send me your corrections if you find mistakes..
  xxSID
Suggest correction
Give kudos to tab author, rate the tab!
1 2 3 4 5
comments
print report bad tab
guest
You may want to rate the tab now too:
select rating
Wanna post a correction for this tab? Suggest correction