Oops, an error
Loading. Please wait.

Sweet Potato Bass Tab

153 views 1 this week
no commentswrite comment
1 2 3 4 5
3 more votes to show rating
add to favorites
launch autoscroll
font size
0
reset
guitar tuner
Autoscroll
slow
fast
+/-
esc
set tempo
stop
Help us to improve Ultimate-Guitar.com Take our survey!
×
Author
~ let ring

part1
G-------------|
D-------------|
A----7~-5~-7~-|
E-5~----------|

part2
G---------------------|
D---------------------|
A------7777-5555-7777-|
E-5555----------------|

part3
G------------------------------799999999----7979797---|
D----------------------------------------99--------97-|
A----577777777----575777777---------------------------|
E-77-----------77-----------77------------------------|

finish
G----
D----
A----
E-5~-

order:
part1 2X
part2 12X
part3 1X
part2 12X
part3 1X
part2 8X
part3 1X
part1 3X
finish

thats all.. have fun..
  xxSID
Suggest correction
Give kudos to tab author, rate the tab!
1 2 3 4 5
comments
print report bad tab
guest
You may want to rate the tab now too:
select rating
Wanna post a correction for this tab? Suggest correction