Oops, an error
Loading. Please wait.

The Freshman Bass Tab

776 views 3 this week
no commentswrite comment
1 2 3 4 5
please rate
add to favorites
launch autoscroll
font size
0
reset
guitar tuner
Tab Pro tools
  • play this tab
  • loop segment
  • change instrument
  • show fretboard
  • metronome
×
Best way to learn
"The Freshman"
Autoscroll
slow
fast
+/-
esc
set tempo
stop
Contributor
Mustard Plug- The Freshman


Intro Part 1 
G|------------------------------|
D|-----3----3-------------------|
A|------------1----1-5----3-1-1-| 
E|------------------------------| 

Intro Part 2 
G|-------------------------------------|
D|-33333333----------------------------|
A|---------11111111-555555-33-11111111-|
E|-------------------------------------| 

Verse part 1 (Same tempo as Intro Part 2)
G|--------------------------------------| 
D|-3------------------------------------| 
A|---------11111111-555555-33-11111111--| 
E|--------------------------------------| 

Verse part 2 
G|----22-33-55---------------------------------| 
D|-33------------00----------------------------| 
A|-------------1----1-1-555555-33-11111111-----| 
E|---------------------------------------------| 

Pre Chorus 
G|---------------------------------------| 
D|---------------------------------------| 
A|-5555-3333-11111111--------------------| 
E|---------------------------------------|

Chorus "For the life of me" 
G|-------------------------------------| 
D|-33333333----------------------------|
A|---------11111111-555555-33-11111111-| 
E|-------------------------------------| 

Bridge 
G|--------------------------------| 
D|-----------33-------------------| 
A|-0000-1111----3-333-------------| 
E|--------------------------------| 

Outro 
G|-------------------------------------| 
D|-3---3---3---3-----------------------| 
A|-------------------------------------| 
E|-------------------------------------| 


Song Order
Intro Part 1 (0:00) x1
Intro Part 2 (0:09) x3
Verse Part 1 (0:26) x1
Verse Part 2 (0:31) x2  
Pre Chorus (0:38)   x4  
Chorus (0:49)       x2  
Bridge (1:00)       x2  
Verse Part 1 (1:10) x1  
Verse Part 2 (1:16) x1  
Pre Chorus (1:22)   x4  
Chorus (1:33)       x2  
Bridge (1:44)       x4  
Verse Part 1 (1:54) x1  
Verse Part 2 (2:00) x1	
Pre Chorus (2:06)   x4 
Chorus (2:16)       x4	
Outro (2:38)        x1	
Bridge (2:44)       x2	
Chorus (2:54)       x2	
Outro (3:05) 	    x1  
comments
We did not receive enough feedback on this tab! Please rate:
print report bad tab
1 2 3 4 5
I want to post or [tab]
guest
You may want to rate the tab now too:
select rating
Please do not post tabs as comments. Select "correction" instead!