Oops, an error
Loading. Please wait.

Thigh High Nylons Bass Tab

version 2
version 2

Whole song

928 views 3 this week
no commentswrite comment
1 2 3 4 5
1 last vote to show rating
add to favorites
launch autoscroll
font size
0
reset
guitar tuner
Autoscroll
slow
fast
+/-
esc
set tempo
stop
Help us to improve Ultimate-Guitar.com Take our survey!
×
Author
Difficulty
intermediate
-------------------------------------------------------------------------------
			     Thigh High Nylons - Mustard Plug
-------------------------------------------------------------------------------

Tabbed By : Dakota Smolders
e-mail: dakota_s_@hotmail.com

Tuning: Standard

Intro
G|-----------------------------------------------------------------|
D|---6-7-6---------------------------6-7-6-------------------------|
A|-7---------6-7-6---4-5-4---6-7-6-7---------6-7-6---4-5-4---6-7-6-|
E|---------7-------5-------7---------------7-------5-------7-------|

Verse
G|-----------------------------------------------------------------|
D|---6-7-6---------------------------6-7-6-------------------------|
A|-7---------6-7-6---4-5-4---6-7-6-7---------6-7-6---4-5-4---6-7-6-|
E|---------7-------5-------7---------------7-------5-------7-------|

G|-----------------------------------------------------------------|
D|---6-7-6---------------------------6-7-6-------------------------|
A|-7---------6-7-6---4-5-4---6-7-6-7---------6-7-6---4-5-4---6-7-6-|
E|---------7-------5-------7---------------7-------5-------7-------|

G|-----------------------------------------------------------------|
D|---6-7-6---------------------------6-7-6-------------------------|
A|-7---------6-7-6---4-5-4---6-7-6-7---------6-7-6---4-5-4---6-7-6-|
E|---------7-------5-------7---------------7-------5-------7-------|

Chorus
G|---------------------------------------------------|
D|---------------------------------------------------|
A|-------------------------------------7777777777777-|
E|-55555-77777-55555-77777-55555-77777---------------|

Verse
G|-----------------------------------------------------------------|
D|---6-7-6---------------------------6-7-6-------------------------|
A|-7---------6-7-6---4-5-4---6-7-6-7---------6-7-6---4-5-4---6-7-6-|
E|---------7-------5-------7---------------7-------5-------7-------|

G|-----------------------------------------------------------------|
D|---6-7-6---------------------------6-7-6-------------------------|
A|-7---------6-7-6---4-5-4---6-7-6-7---------6-7-6---4-5-4---6-7-6-|
E|---------7-------5-------7---------------7-------5-------7-------|

G|-----------------------------------------------------------------|
D|---6-7-6---------------------------6-7-6-------------------------|
A|-7---------6-7-6---4-5-4---6-7-6-7---------6-7-6---4-5-4---6-7-6-|
E|---------7-------5-------7---------------7-------5-------7-------|

Chorus
G|---------------------------------------------------|
D|---------------------------------------------------|
A|-------------------------------------7777777777777-|
E|-55555-77777-55555-77777-55555-77777---------------|

Bridge
G|------------------------------------------------------------|
D|-----9\45p4---------4-4---4/5------9\45p4---------4-4---4/5-|
A|----------------7-----------------------------7-------------|
E|-7-7--------0-0---0-----0------7-7--------0-0---0-----0-----|
   s s p      s s p s p p s p   s s p       s s p s p p s p

G|------------------------------------------------------------|
D|-----9\45p4---------4-4---4/5------9\45p4---------4-4---4/5-|
A|----------------7-----------------------------7-------------|
E|-7-7--------0-0---0-----0------7-7--------0-0---0-----0-----|
   s s p      s s p s p p s p   s s p       s s p s p p s p

G|------------------------------------------------------------|
D|-----9\45p4---------4-4---4/5------9\45p4---------4-4---4/5-|
A|----------------7-----------------------------7-------------|
E|-7-7--------0-0---0-----0------7-7--------0-0---0-----0-----|
   s s p      s s p s p p s p   s s p       s s p s p p s p

G|------------------------------------------------------------|
D|-----9\45p4---------4-4---4/5------9\45p4---------4-4---4/5-|
A|----------------7-----------------------------7-------------|
E|-7-7--------0-0---0-----0------7-7--------0-0---0-----0-----|
   s s p      s s p s p p s p   s s p       s s p s p p s p

G|------------------------------------------------------------|
D|-----9\45p4---------4-4---4/5------9\45p4---------4-4---4/5-|
A|----------------7-----------------------------7-------------|
E|-7-7--------0-0---0-----0------7-7--------0-0---0-----0-----|
   s s p      s s p s p p s p   s s p       s s p s p p s p

G|------------------------------------------------------------|
D|-----9\45p4---------4-4---4/5------9\45p4---------4-4---4/5-|
A|----------------7-----------------------------7-------------|
E|-7-7--------0-0---0-----0------7-7--------0-0---0-----0-----|
   s s p      s s p s p p s p   s s p       s s p s p p s p

G|------------------------------------------------------------|
D|-----9\45p4---------4-4---4/5------9\45p4---------4-4---4/5-|
A|----------------7-----------------------------7-------------|
E|-7-7--------0-0---0-----0------7-7--------0-0---0-----0-----|
   s s p      s s p s p p s p   s s p       s s p s p p s p

G|------------------------------------------------------------|
D|-----9\45p4---------4-4---4/5------9\45p4---------4-4---4/5-|
A|----------------7-----------------------------7-------------|
E|-7-7--------0-0---0-----0------7-7--------0-0---0-----0-----|
   s s p      s s p s p p s p   s s p       s s p s p p s p

Verse
G|-----------------------------------------------------------------|
D|---6-7-6---------------------------6-7-6-------------------------|
A|-7---------6-7-6---4-5-4---6-7-6-7---------6-7-6---4-5-4---6-7-6-|
E|---------7-------5-------7---------------7-------5-------7-------|

G|-----------------------------------------------------------------|
D|---6-7-6---------------------------6-7-6-------------------------|
A|-7---------6-7-6---4-5-4---6-7-6-7---------6-7-6---4-5-4---6-7-6-|
E|---------7-------5-------7---------------7-------5-------7-------|

G|-----------------------------------------------------------------|
D|---6-7-6---------------------------6-7-6-------------------------|
A|-7---------6-7-6---4-5-4---6-7-6-7---------6-7-6---4-5-4---6-7-6-|
E|---------7-------5-------7---------------7-------5-------7-------|

Chorus/Outro
G|---------------------------------------------------|
D|---------------------------------------------------|
A|-------------------------------------7777777777777-|
E|-55555-77777-55555-77777-55555-77777---------------|

G|----------------------------------------------------|
D|----------------------------------------------------|
A|-------------------------------------7777777777777~-|
E|-55555-77777-55555-77777-55555-77777----------------|

| s  (under staff) slap
| p  (under staff) pop
| /  slide up
| \  slide down
| h  hammer-on
| p  pull-off
| ~  vibrato
| +  harmonic
| x  Mute note
===============================================================================
Suggest correction
Give kudos to tab author, rate the tab!
1 2 3 4 5
comments
print report bad tab
guest
You may want to rate the tab now too:
select rating
Wanna post a correction for this tab? Suggest correction