Oops, an error
Loading. Please wait.

Throw A Bomb Bass Tab

773 views 1 this week
no commentswrite comment
1 2 3 4 5
2 more votes to show rating
add to favorites
launch autoscroll
font size
0
reset
guitar tuner
Autoscroll
slow
fast
+/-
esc
set tempo
stop
Help us to improve Ultimate-Guitar.com Take our survey!
×
Difficulty
intermediate
Intro/Verse
G----------------------------------------------|
D----------------------------------------------|
A--00-12--00--11--00--9--00--7--00--5h7--------|
E----------------------------------------------|

G----------------------------------------------|
D----------------------------------------------|
A--00--12--00--11--00--9--00--11--00--12-------|
E----------------------------------------------|

G----------------------------------------------|
D----------------------------------------------|
A--00-12--00--11--00--9--00--7--00--5h7--------|
E----------------------------------------------|

G-----------------------------|
D-----------------------------|
A--00--7--00--9--00--5--00--7-|
E-----------------------------|


Chorus
G-----------------------------|
D------------0-0----------2-2-|
A--0-0-0000------0-0-0000-----|
E-----------------------------|

Bridge
G---------------|
D---------------|
A---------------|
E---3/5-----3/5-|
Suggest correction
Give kudos to tab author, rate the tab!
1 2 3 4 5
comments
print report bad tab
guest
You may want to rate the tab now too:
select rating
Wanna post a correction for this tab? Suggest correction