Oops, an error
Loading. Please wait.

To Be Bass Tab

version 2
version 2

Whole song

79 views 1 this week
no commentswrite comment
1 2 3 4 5
please rate
add to favorites
launch autoscroll
font size
0
reset
guitar tuner
Autoscroll
slow
fast
+/-
esc
set tempo
stop
Help us to improve Ultimate-Guitar.com Take our survey!
×
Author
Difficulty
novice
-------------------------------------------------------------------------------
			     To Be - Mustard Plug
-------------------------------------------------------------------------------

Tabbed By : Dakota Smolders
e-mail: dakota_s_@hotmail.com

Tuning: Standard

Intro
G|----------------------|
D|-------3333-----------|
A|--5555-----------3333-|x1
E|------------5555------|

Verse
G|----------------------|
D|-------3333-----------|
A|--5555-----------3333-|x12
E|------------5555------|

Chorus
G|----------------------------|
D|----------------------------|
A|----------------------------|x2
E|-7-7-7--3-2-2--7-7-7--3-2-2-|

Verse
G|----------------------|
D|-------3333-----------|
A|--5555-----------3333-|x12
E|------------5555------|

Chorus
G|----------------------------|
D|----------------------------|
A|----------------------------|x2
E|-7-7-7--3-2-2--7-7-7--3-2-2-|

Verse
G|----------------------|
D|-------3333-----------|
A|--5555-----------3333-|x12
E|------------5555------|

Chorus
G|----------------------------|
D|----------------------------|
A|----------------------------|x1
E|-7-7-7--3-2-2--7-7-7--3-2-2-|

Outro
G|-------------------------------------|
D|-------------------------------------|
A|-------------------------------------|x1
E|-7-7-7--3-2-2--7-7-7--3--2--2-7~~~7\0|


| /  slide up
| \  slide down
| h  hammer-on
| p  pull-off
| ~  vibrato
| +  harmonic
| x  Mute note
===============================================================================
Suggest correction
Give kudos to tab author, rate the tab!
1 2 3 4 5
comments
print report bad tab
guest
You may want to rate the tab now too:
select rating
Please do not post tabs as comments. Select "correction" instead!