Oops, an error
Loading. Please wait.

You Bass Tab

version 3
version 3

Whole song

Interactive

250 views 1 this week
no commentswrite comment
1 2 3 4 5
please rate
add to favorites
launch autoscroll
font size
0
reset
guitar tuner
Autoscroll
slow
fast
+/-
esc
set tempo
stop
Help us to improve Ultimate-Guitar.com Take our survey!
×
Author
Band: Mustard Plug
Song: You

Tuning: Standard (EADG low to high)

This is a very good ska song. It's based off of the Bb major scale in case you
want to improvise.  It's a really simple song and shouldn't be very hard to learn.  Have Fun!

Intro
Part 1
G|----------------|----------------|----------------|----------------|----------------|
D|------Rest-x4---|----------------|----------------|----------------|----------------|
A|----------------|----------------|5-----------5---|6-----------6---|8-----------8---|
E|----------------|6-----------6---|----------------|----------------|----------------|

Part 2
G|----------------|----------------|----------------|----5-5---------|
D|----------------|----------------|----5-5-8-8-5-5-|---------8-7-8--|
A|----------------|5-5-5-5-5-5-5-5-|6-6-------------|8---------------|
E|6-6-6-6-6-6-6-6-|----------------|----------------|----------------| x2

Verse
Part 1
G|----------------|----------------|----------------|----5-5---------|
D|----------------|----------------|----5-5-8-8-5-5-|---------8-7-8--|
A|----------------|5-5-5-5-5-5-5-5-|6-6-------------|8---------------|
E|6-6-6-6-6-6-6-6-|----------------|----------------|----------------| x2

Part 2
G|----------------|----------------|----------------|----------------|
D|----------------|----------------|----------------|----------------|
A|--------------6-|8-8-8-8-8-8-8-6-|--------------5-|6-6-6-6-6-6-6-5-|
E|6-6-6-6-6-6-6---|----------------|8-8-8-8-8-8-8---|----------------| x2

Chorus
Part 1
G|----------------|----------------|
D|----------------|----------------|
A|--------------5-|6-6-6-6-6-6-6-5-|      
E|3-3-3-3-3-3-3---|----------------| x 3

G|----------------|----------------|
D|----------------|----------------|
A|5-5-5-5-5-5-5-5-|6---5---6---5---|
E|----------------|----------------| x1

Part 2
G|------------------|----------------|----------------|----------------|
D|------------------|----------------|----------------|----------------|
A|------------------|5-5-5-5-5-5-5-5-|----------------|6-6-6-6-6-6-6-6-|
E|(6-6-)6-6-6-6-6-6-|----------------|3-3-3-3-3-3-3-3-|----------------| x4
   ^^^^
  Don't play on 3rd and 4th times

Intro Part 2
Verse
Chorus
Horns and Drums only part
Intro Part 2
Verse
Chorus

Outro

G|----------------|----------------|
D|----------------|----------------|
A|--------8-8-8-8-|6-6-6-6-5-6-5-6-|
E|6-6-6-6---------|----------------| x4

End on

G|----------------|
D|----------------|
A|----------------|
E|6---------------|
Suggest correction
What's this?
You can suggest a correction to this tab. Community and Mods will review your correction and vote to approve or reject it.
comments
We did not receive enough feedback on this tab! Please rate:
print report bad tab
1 2 3 4 5
guest
You may want to rate the tab now too:
select rating
Please do not post tabs as comments. Select "correction" instead!