Oops, an error
Loading. Please wait.

You Tab

version 3
version 3

Whole song

Interactive

321 views 1 this week
no commentswrite comment
1 2 3 4 5
please rate
add to favorites
launch autoscroll
font size
0
reset
how to read this tab
guitar tuner
Autoscroll
slow
fast
+/-
esc
set tempo
stop
Help us to improve Ultimate-Guitar.com Take our survey!
×
Author
----------------------------------------------------------------------------
			     YOU – Mustard Plug
----------------------------------------------------------------------------
Tabbed by:donthavealife??
Email:b777vale@yahoo.com

Tuning:standard

intro chords (you can figure out the strumming I hope):

     Bb		Dm	Cm	F
e|---6----------5------3------5--------------------------------------------|
B|---6----------6------4------6--------------------------------------------|
G|---7----------7------5------5--------------------------------------------|
D|---8----------7------5---------------------------------------------------|
A|---8----------5------3---------------------------------------------------|
E|---6---------------------------------------------------------------------|

the horn thingie for guitar (in case you are interested)
e|-------------------------------------------------------------------------|
B|--------------6----------------------------------------------------------|
G|---/7-7-7-7-7---7----7-----7--5------------------------------------------|
D|------------------------5------------------------------------------------|
A|-------------------------------------------------------------------------|
E|-------------------------------------------------------------------------|

e|-------------------------------------------------------------------------|
B|----------------------------------------6--------------------------------|
G|----------------------5--7---5--7-7-5-7----------------------------------|
D|---8-8-8-8-8-8--7--8-----------------------8-----------------------------|
A|-------------------------------------------------------------------------|
E|-------------------------------------------------------------------------|

the verse is pretty much the same as the intro, then it goes into the prechorus
(again, figure out strumming/ timing on your own)

				“You never told me!”
e|-------------------------------------------------------------------------|
B|-------------------------------------------------------------------------|
G|---------------------8---------------------------------------------------|
D|------5--------------8---------------------------------------------------|
A|------5--------------6---------------------------------------------------|
E|------3------------------------------------------------------------------|

				“You never! You never!”
e|-------------------------------------------------------------------------|
B|-------------------------------------------------------------------------|
G|---------------------8---------------------------------------------------|
D|------5--------------8---------------------------------------------------|
A|------5--------------6---------------------------------------------------|
E|------3------------------------------------------------------------------|

				“You never told me-e…”
e|-------------------------------------------------------------------------|
B|-------------------------------------------------------------------------|
G|---------------------8-------------------------7-------------------------|
D|------5--------------8-------------------------7-------------------------|
A|------5--------------6-------------------------5-------------------------|
E|------3------------------------------------------------------------------|

The chorus is just these chords:
e|-------------------------------------------------------------------------|
B|-------------------------------------------------------------------------|
G|----------------7----------------8---------------------------------------|
D|-------8--------7-------5--------8---------------------------------------|
A|-------8--------5-------5--------6---------------------------------------|
E|-------6----------------3------------------------------------------------|

Alright that looks pretty good to me. Im missing a couple pieces to the verse but 
It sounds pretty good. I doubt this tab will get much viewing but mustard plug rocks, enjoy.

| /  slide up
| \  slide down
| h  hammer-on
| p  pull-off
| ~  vibrato
| +  harmonic
| x  Mute note
============================================================================
Suggest correction
What's this?
You can suggest a correction to this tab. Community and Mods will review your correction and vote to approve or reject it.
comments
We did not receive enough feedback on this tab! Please rate:
print report bad tab
1 2 3 4 5
guest
You may want to rate the tab now too:
select rating
Please do not post tabs as comments. Select "correction" instead!