Oops, an error
Loading. Please wait.

All My Life Tab

64 views 3 this week
1 commentread comment
1 2 3 4 5
2 more votes to show rating
add to favorites
launch autoscroll
font size
0
reset
how to read this tab
guitar tuner
Autoscroll
slow
fast
+/-
esc
set tempo
stop
Help us to improve Ultimate-Guitar.com Take our survey!
×
Author
Difficulty
intermediate
About this tab version
This version is my interpretation of the song. I listened through the song many times and tried to get it right as best as I can. It's NOT 100% right, but I tried to get it as close as I could. Was this info helpful? Yes No
So I was looking for tabs for this song, and sadly I couldn't find any. So I decided why not make one myself!
And also this is my very first guitar tab, so it might not be 100% perfect. I tried my best so I hope you'll
enjoy this awesome intro from an awesome song!

Band: Mustasch

Song: All My Life 

Album: Thank You For The Demon(2014)


[Intro]

#1
Do this 2x
e|------------------3----4-----4----|
B|----6---------6----------4h6------|
G|---------5------------------------|
D|----3-----------------------------|
A|----------------------------------|
E|----------------------------------|


[Verse] (x2)

#2                      
e|------------------3----4-----4----|
B|----6---------6----------4h6------|
G|---------5------------------------|
D|----3-----------------------------|
A|----------------------------------|
E|----------------------------------|
                       "All my life..."

#3
Then do dis 1x
e|----------------------------|
B|----9-----11----13----14----|
G|----10----12----13----15----|
D|----------------------------|
A|----------------------------|
E|----------------------------|

#4
Do dat 1x
e|-------------------6----8------------------------------------------|
B|----8---------8------------------------6---------------------------|
G|---------8-----------------------------6---------------------------|
D|-------------------------------------------------------------------|
A|----6------------------------6---------4----8----6-----------------|
E|---------------------------------------------------------6----4----|
"Iv'e had to cover up..."


[Verse - Pt.2)

#5                      
e|------------------3----4-----4------|
B|----6---------6----------4h6--------|
G|---------5--------------------------|
D|----3-------------------------------|
A|------------------------------------|
E|------------------------------------|
             "Let It Be..."                      

#6
e|----------------------------|
B|----9-----11----13----14----|
G|----10----12----13----15----|
D|----------------------------|
A|----------------------------|
E|----------------------------|


#7
e|-------------------6----8------------------------4-------------------|
B|----8---------8-------------------6---------6---------4---------6----|
G|---------8------------------------6----6-------------------6----6----|
D|---------------------------------------------------------------------|
A|----6------------------------6----4-----------------------------4----|
E|---------------------------------------------------------------------|
     "They always say..."


************************************

| h = Hammer-on

************************************
Suggest correction
Give kudos to tab author, rate the tab!
1 2 3 4 5
comments
print report bad tab
1 comment total.
0 reply
williamshak41 33 Oct 22, 2016 10:19 PM

didn't like this contribution

guest
You may want to rate the tab now too:
select rating
Wanna post a correction for this tab? Suggest correction