Oops, an error
Loading. Please wait.

Dinero Tab

188 views 1 this week
no commentswrite comment
1 2 3 4 5
3 more votes to show rating
add to favorites
launch autoscroll
font size
0
reset
how to read this tab
guitar tuner
×
Best way to learn
"Dinero"
Autoscroll
slow
fast
+/-
esc
set tempo
stop
Esta es la versión del tema que usé para sacar la tab


INTRO:
E|----------------------------|
B|----------------------------| X4
G|----------------------------|
D|-----------------77-66-4444-|
A|--7-999-7-999--7-55-44-2222-|
E|--5-777-5-777--5------------|


A5  B5     A5   B5       A5    D5    C#5   C5
caminando por las calles sin saber a donde voy
A5  B5        A5   B5      A5    D5    C#5   C5
sin angustias ni problemas libre del sistema estoy

E|----------------------------|
B|----------------------------|
G|----------------------------|
D|-----------------77-66-4444-|
A|--7-999-7-999--7-55-44-2222-|
E|--5-777-5-777--5------------|

A5  B5     A5   B5     A5    D5    C#5   C5
el sistema nos alienta y nos quiere consumir
A5  B5        A5   B5    A5    D5   C#5   C5
con promesas, con dinero y ambicion nos llegará

E|----------------------------|
B|----------------------------| X2
G|----------------------------|
D|-----------------77-66-4444-|
A|--7-999-7-999--7-55-44-2222-|
E|--5-777-5-777--5------------|


D5 C#5 C5   D5 C#5 C5
                      dinero
D5 C#5 C5   D5 C#5 C5
                      angustias
D5 C#5 C5   D5 C#5 C5
                      dinero
D5 C#5 C5   D5 C#5 C5
                      problemas
D5 C#5 C5   D5 C#5 C5
                      dinero
D5 C#5 C5   D5 C#5 C5
                      sistemaaaaa
A5  B5       A5   B5      A5    D5    C#5   C5
Nuestro dios es el dinero y sin él el hambre está,
A5  B5         A5   B5     A5    D5    C#5   C5
toca que antes te asesinen sin poderlo disfrutar

E|----------------------------|
B|----------------------------|
G|----------------------------|
D|-----------------77-66-4444-|
A|--7-999-7-999--7-55-44-2222-|
E|--5-777-5-777--5------------|

A5  B5     A5   B5      A5    D5    C#5   C5
Lo deseas, lo acaricias y por él la vida das
A5  B5     A5   B5      A5   D5    C#5   C5
el sistema lo ha creado y tú lo conservarás

E|----------------------------|
B|----------------------------| X2
G|----------------------------|
D|-----------------77-66-4444-|
A|--7-999-7-999--7-55-44-2222-|
E|--5-777-5-777--5------------|


D5 C#5 C5   D5 C#5 C5
                      dinero
D5 C#5 C5   D5 C#5 C5
                      angustias
D5 C#5 C5   D5 C#5 C5
                      dinero
D5 C#5 C5   D5 C#5 C5
                      problemas
D5 C#5 C5   D5 C#5 C5
                      dinero
D5 C#5 C5   D5 C#5 C5
                      sistemaaaaa

A5  B5       A5   B5     A5    D5     C#5   C5
Soy producto del sistema que se quiere revelar
A5  B5      A5   B5         A5    D5    C#5   C5
y mostrarle a todo el mundo cual es nuestra reaidad

E|----------------------------|
B|----------------------------| X2
G|----------------------------|
D|-----------------77-66-4444-|
A|--7-999-7-999--7-55-44-2222-|
E|--5-777-5-777--5------------|


D5 C#5 C5   D5 C#5 C5
                      dinero
D5 C#5 C5   D5 C#5 C5
                      angustias
D5 C#5 C5   D5 C#5 C5
                      dinero
D5 C#5 C5   D5 C#5 C5
                      problemas
D5 C#5 C5   D5 C#5 C5
                      dinero
D5 C#5 C5   D5 C#5 C5
                      sistemaaaaa

E|----------------------------|-------------------------------|
B|------------------------X4--|-------------------------------|
G|----------------------------|-------------------------------|
D|-----------------77-66-4444-|-555-444-555-4---555-444-555-4-|
A|--7-999-7-999--7-55-44-2222-|-555-444-555-4---555-444-555-4-|
E|--5-777-5-777--5------------|-333-222-333-2---333-222-333-2-|


ACORDES:
E|---X----X----X----X----X---|
B|---X----X----X----X----X---|
G|---X----X----X----X----X---|
D|---X----X----7----6----5---|
A|---7----9----5----4----3---|
E|---5----7----X----X----X---|
     A5   B5   D5  C#5   C5
Suggest correction
Give kudos to tab author, rate the tab!
1 2 3 4 5
comments
print report bad tab
guest
You may want to rate the tab now too:
select rating
Wanna post a correction for this tab? Suggest correction