Oops, an error
Loading. Please wait.

Reset tab

4,220 views 1 this week
1 commentread comment
1 2 3 4 5
1 last vote to show rating
add to favorites
×
Save as Personal and add changes to this tab that will be seen only by you. Learn more ›
×
You can save this tab as Personal to edit and correct it or add notes. All changes will be seen only by you. Learn more »
launch autoscroll
font size
0
reset
how to read this tab
guitar tuner
edit
Autoscroll
slow
fast
+/-
esc
set tempo
stop
Author
Difficulty
This is the Guitar part for Reset by Mute Math.
These are the two main parts (in order that they are played).
Some parts add a little extra to the end the last time there played, but there are no new
notes so this should do just fine.


    e-----------------------|
    B-----------------------|
    G-----------------------|
    D-----------------------|
    A-6--1--3---------------|
    E-----------------------|



    e---------------------|
    B---------------------|
    G-1--0--0--0----------|
    D--3--3--3--1---------|
    A------------3--------|
    E---------------------|


Also if your wondering what instrument there using at around 4:00 its called an Axe Synth
made by ElektroKraft

If you have any comments, qustions or suggestions email me at : Keeganbrads@gmail.com

            
            
Suggest correction
Creating personal tab
Creating personal tab
You can edit any tab online and save it as your Personal.

You can edit, replace or remove any tab part or add personal notes – all changes will be seen only by you.

Personal tabs can be accessed anytime from any device, even offline.
Learn more »
Give kudos to tab author, rate the tab!
1 2 3 4 5
comments
print report bad tab
1 comment total.
0 reply
CodyD23 16 Feb 25, 2014 09:14 PM

I like to play it this way with a small delay on so it rings out but either ways sounds the same.

e----------------|
b----------------|
G----------------|
D-6-5-3-5-3-5----|
A------------6-3-|

Or after you hit the 1 fret on the G play the G open

e-------------------|
B-------------------|
G-1-0--0--0--0------|
D-----3--3--3--1----|
A---------------3---|
E-------------------|

guest
You may want to rate the tab now too:
select rating
Wanna post a correction for this tab? Suggest correction