Oops, an error
Loading. Please wait.

Awake tab

version 1
version 1

Whole song

Interactive

3,387 views 3 this week
4 commentsread comments
1 2 3 4 5
1 last vote to show rating
add to favorites
×
Save as Personal and add changes to this tab that will be seen only by you. Learn more ›
×
You can save this tab as Personal to edit and correct it or add notes. All changes will be seen only by you. Learn more »
launch autoscroll
font size
0
reset
how to read this tab
guitar tuner
edit
Autoscroll
slow
fast
+/-
esc
set tempo
stop
-------------------------------------------------------------------------------
                             Awake - Mutiny Within
-------------------------------------------------------------------------------
Tabbed by: BigWoodaz10
Email: jwm_king@hotmail.com

THIS IS MY FIRST TAB SO GO EASY

Tuning: Drop C

 HEAVY BREAKDOWN !!!
e|-6-5-3---------------------------------------------------------------------|
B|-------6-5-3---------------------------------------------------------------|
G|-------------3-2-0---------------------------------------------------------|
D|---------------------------------------------------------------------------|
A|---------------------------1-----------------------------------------------|
E|-----------------------1-3-------------------------------------------------|


e|--------------------------------------------------------------------------|
B|--------------------------------------------------------------------------|
G|--------------------------------------------------------------------------|
D|--------------------------------------------------------------------------|
A|---------------------------------------------------------------1----------|
E|0--0--0--4--3--0--3--1--0--0--0--0--4--3--0--3--1--0--1--1--1--1----------|


e|---------------------------------------------------------------------------|
B|---------------------------------------------------------------------------|
G|---------------------------------------------------------------------------|
D|---------------------------------------------------------------------------|
A|---------------------------------------------0--1--0-----------3-----4-----|
E|0--0--0--4--3--0--3--1--0--0--0--0--0--1--3-----------3--3--3-----3--------|


e|--------------------------------------------------------------------------|
B|--------------------------------------------------------------------------|
G|--------------------------------------------------------------------------|
D|--------------------------------------------------------------------------|
A|---------------------------------------------------------------1----------|
E|0--0--0--4--3--0--3--1--0--0--0--0--4--3--0--3--1--0--1--1--1--1----------|


e|--------------------------------------------------------------------------|
B|--------------------------------------------------------------------------|
G|--------------------------------------------------------------------------|
D|--------------------------------------------------------------------------|
A|---------6---------5-----------------3--------1-----------------(5)-------|
E|5--5--5------5--5-----5--5--3--3--3-----3--3-----3--3--1--1--1------------|


VERSE

e|-------------------------------------------|
B|-------------------------------------------|
G|-------------------------------------------|  X 4   Miss out the one fourth
D|-------------------------------------------|        time round.
A|------0--------0-----------0 ---------3--1-|
E|0000000-----0000-------0000000000-----3--1-|


CHORUS

e|----------------------------------|
B|----------------------------------|
G|----------------------------------| X2
D|5--------8--------3--------1------|
A|5-X12----8-X12----3-X12----1-X12--|
E|5--------8--------3--------1------|


e|--------------------------------------------------------------------------|
B|--------------------------------------------------------------------------|
G|--------------------------------------------------------------------------|
D|--------------------------------------------------------------------------|
A|---------------------------------------------------------------1----------|
E|0--0--0--4--3--0--3--1--0--0--0--0--4--3--0--3--1--0--1--1--1--1----------|


e|--------------------------------------------------------------------------|
B|--------------------------------------------------------------------------|
G|--------------------------------------------------------------------------|
D|--------------------------------------------------------------------------|
A|---------------------------------------------0--1--0-----------3-----4----|
E|0--0--0--4--3--0--3--1--0--0--0--0--0--1--3-----------3--3--3-----3-------|


e|--------------------------------------------------------------------------|
B|--------------------------------------------------------------------------|
G|--------------------------------------------------------------------------|
D|--------------------------------------------------------------------------|
A|---------------------------------------------------------------1----------|
E|0--0--0--4--3--0--3--1--0--0--0--0--4--3--0--3--1--0--1--1--1--1----------|


e|--------------------------------------------------------------------------|
B|--------------------------------------------------------------------------|
G|--------------------------------------------------------------------------|
D|--------------------------------------------------------------------------|
A|---------6--------5-----------------3--------1--------2-------------------|
E|5--5--5-----5--5-----5--5--3--3--3-----3--3-----3--3--2-------------------|

REPEAT VERSE X2

PRE-CHORUS

e|--------------------------------------------------------------------------|
B|--------------------------------------------------------------------------|
G|--------------------------------------------------------------------------|
D|--------------5-X12--8-X12--5-X12--8-X7-----------------------------------|
A|3-X12--1-X12--3------6------3------6--------------------------------------|
E|3------1------------------------------------------------------------------|


REPEAT CHORUS X4


BRIDGE

e|----------------------------------------------|
B|----------------------------------------------|
G|-----------------------------------12---------| X2
D|-------12--15--14--12--14--12----------14--15-|
A|---12--------------------------12-------------|
E|0---------------------------------------------|


BRIDGE PART 2

e|---------------------------------|
B|---------------------------------|
G|------------------------12-------| X8
D|---12-15-14-12-14-12-------14-15-|
A|-12------------------12----------|
E|0--------------------------------|


SOLO

e|----------------------------------------------------------|
B|----------10-15-10----------------------10-17-10----------|
G|-----7-10----------10-7------------7-10----------10-7-----|
D|---7--------------------7--------7--------------------7---|
A|5-8-----------------------8----8------------------------8-|
E|----------------------------10----------------------------|

e|-----------10-12-13-12-10----------------------------------------------|
B|--------10----------------10-------20-13-10-18-13-10-17-13-10-15-13-10-|
G|-----10----------------------10----------------------------------------|
D|7-12----------------------------12-------------------------------------|
A|-----------------------------------------------------------------------|
E|-----------------------------------------------------------------------|

e|---------------------------------------5-20------------|
B|-----------10-15-10------------------6------10---------|
G|------7-10----------10-7-----------7----------10-7-----|
D|----7--------------------7-------7-----------------7---|
A|5-8------------------------8-5-8---------------------8-|
E|-------------------------------------------------------|


e|---------------------------------10-20-13-10----------12-|
B|------------11-15-20-15-11----11-------------10----------|
G|---------12----------------12-------------------10-------|
D|------12-------------------------------------------12----|
A|10-13----------------------------------------------------|
E|---------------------------------------------------------|


GETS CRAZIER
e|--------------12-13-12---------12-13-12-15-12-10-12-13-12---------|
B|-----------10----------10---------------------------------13------|
G|------7-10----------------10-7-------------------------------10-7-|
D|----7-------------------------------------------------------------|
A|5-8---------------------------------------------------------------|
E|------------------------------------------------------------------|

e|-------------------------------------------------------------------|
B|---------------13-15-18-15-13-------22-15--13---20-15-13-----------|
G|---------12-14----------------14-12----------------------22-14-12--|
D|---12-15-----------------------------------------------------------|
A|15-----------------------------------------------------------------|
E|-------------------------------------------------------------------|


e|---------------12-13-12-------|
B|------------13----------13----|
G|---------14----------------14-|
D|15-14-15----------------------|
A|------------------------------|
E|------------------------------|

e|---------15----------------------------------------------------------|
B|15-13-15----15-13----------17-18-17-------------17-18-17----------17-|
G|------------------17-14-------------17-------17----------19-17-19----|
D|------------------------15-------------17-19-------------------------|
A|---------------------------------------------------------------------|
E|---------------------------------------------------------------------|

e|17----------------16----------------17-18-----17-15----15-18-22-|
B|---18-15----15-18----18-15----15-18-----------------18----------|
G|---------17----------------17-----------------------------------|
D|----------------------------------------------------------------|
A|----------------------------------------------------------------|
E|----------------------------------------------------------------|

e|------------------18-------------------20-15-12---------------------------|
B|------------15-18----18-15----------------------13------------------------|
G|---------14----------------14----------------------12------------------14-|
D|------15----------------------15----------------------14-------------15---|
A|---15----------------------------15----------------------15----12-15------|
E|15----------------------------------------------------------15------------|


e|------------------------------------------12-17-13---------------------15--|
B|---------------------------------------15----------15------------------17--|
G|------------------12-14-------12-14-15----------------14-------------------|
D|------------12-14-------12-14----------------------------15-------15-14----|
A|------12-15-------------------------------------------------17-15----------|
E|12-15----------------------------------------------------------------------|

e|-------------------------------------------------------------|
B|-------------------------------------------------------------|
G|-------------------------------------------------------------|
D|-------------------------------------------------------------|
A|---------5--------5----------------5--------6--5--3----------|
E|0--0--0-----0--0----0--0--0--0--0-----0--0-----------6--5--3-|

e|---------------------------------------------------------------------|
B|---------------------------------------------------------------------|
G|---------------------------------------------------------------------|
D|--------------------------------------------8--7--5------------------|
A|---------5-------5-----------------8--7--5----------8--7--5----------|
E|0--0--0----0--0-----0--0--0--0--0----------------------------8--7--5-|

e|----------------------------------------------------------------------|
B|----------------------------------------------------------------------|
G|----------------------------------------------------------------------|
D|----------------------------------------------------------------------|
A|---------5--------5----------------5--------5--------6--5--3----------|
E|0--0--0-----0--0----0--0--0--0--0-----0--0-----0--0-----------6--5--3-|

e|-----------------------------------------------------------------------|
B|-----------------------------------------------------------------------|
G|-----------------------------------------------------------------------|
D|-----------------------------------------------------------------------|
A|---------5--------5-----------------6--------6--------8--7--5----------|
E|8--8--8-----8--8-----8--8--5--5--5-----5--5-----5--5-----------8--7--5-|


OUTRO CHORUS

e|--------------------------------------------------------------------------|
B|--------------------------------------------------------------------------|
G|--------------------------------------------------------------------------|
D|5----7-----8-------3----------1--------1---------1--------1---------------|
A|5----7-----8-------3----------1---1-1--1---------1---1-1--1---------------|
E|5----7-----8-------3----------1---1-1--1---------1---1-1--1---------------|


CHORUS (2ND TIME REPLACE 3 WITH 1
                         3      1
                         3      1


THANKS

            
            
Suggest correction
Creating personal tab
Creating personal tab
You can edit any tab online and save it as your Personal.

You can edit, replace or remove any tab part or add personal notes – all changes will be seen only by you.

Personal tabs can be accessed anytime from any device, even offline.
Learn more »
Give kudos to tab author, rate the tab!
1 2 3 4 5
comments
print report bad tab
4 comments total. Showing first comments.
0 reply
TBFMVRA 73 Jul 07, 2010 01:11 AM

This is a 7-string song, not dropped C.

-1 reply
TBFMVRA 73 Nov 01, 2010 04:50 AM

7-STRING SONG!
get it sorted, mate

0 reply
jbwraith 10 Feb 19, 2011 06:49 PM

Not true. Only one guy plays a 7. Seen them live, and was told by them that you don't need a 7 to play any of it.

guest
Wanna post a correction for this tab? Suggest correction