Oops, an error
Loading. Please wait.

1 And 3 Tab

by MxPx
1,346 views 6 this week
no commentswrite comment
1 2 3 4 5
accurate
x 3
add to favorites
launch autoscroll
font size
0
reset
how to read this tab
guitar tuner
Autoscroll
slow
fast
+/-
esc
set tempo
stop
Help us to improve Ultimate-Guitar.com Take our survey!
×
Author
-----------------------------------------------------------------
1 And 3 - MXPX
-----------------------------------------------------------------
Tabbed by: Bair
Email: bair_morritt@hotmail.com
Tuning: Standard

**Updated November 11th 2008**

Intro/ Verse:
e|------------------------------------------------------------------|
B|------------------------------------------------------------------|
G|-------------------------------88888888---------------------------|
D|--10-12-10-8-7-10-8-7-10-(X3)--88888888---------------------------|
A|-------------------------------66666666---------------------------|
E|------------------------------------------------------------------|
                                "Poverty!!!....."
Pre-Chorus:
e|---------------------------------------------------------------|
B|---------------------------------------------------------------|
G|--33333333---------------------------888888888888--------------|
D|--33333333--55555555--33333333--(X2)-888888888888--------------|
A|--11111111--55555555--33333333-------666666666666--------------|
E|------------33333333--11111111---------------------------------|
"Think about the values of the new world order...."

Chorus:
e|------------------------------------------------------------------|
B|------------------------------------------------------------------|
G|--------8888--------5555--------------8888--------5555--88888888--|
D|--5555--8888--8888--5555--(X2)--5555--8888--8888--5555--88888888--|
A|--5555--6666--8888--3333--------5555--6666--8888--3333--66666666--|
E|--3333--------6666--------------3333--------6666------------------|
"The first and third I'm growing tired of the first and third...."

-Then Intro/ Verse
-Then Pre-Chorus
-Then Chorus

Bridge:
e|------------------------------------------------------------------|
B|------------------------------------------------------------------|
G|--------8888--------5555------------------------------------------|
D|--5555--8888--8888--5555--(X2)------------------------------------|
A|--5555--6666--8888--3333------------------------------------------|
E|--3333--------6666------------------------------------------------|

Solo During Bridge:
e|----------------------------------------------------------------|
B|----------------------------------------------------------------|
G|-------3-2-3-----3-2-3-----3-2-3-5-5-3-2------------------------|
D|---5-5-------5-5-------5-5---------------3--(X2)----------------|
A|----------------------------------------------------------------|
E|----------------------------------------------------------------|

e|---------------------------------------------------------------|
B|---------------------------------------------------------------|
G|------------------55555555-------------------------------------|
D|--55--5555--5555--55555555--(X4)-------------------------------|
A|--55--5555--5555--33333333-------------------------------------|
E|--33--3333--3333-----------------------------------------------|
"We're possessed, obsessed, in turn we're more distressed...."

-Then Pre-Chorus
-Then Chorus

End a G
Suggest correction
Give kudos to tab author, rate the tab!
1 2 3 4 5
comments
print report bad tab
guest
You may want to rate the tab now too:
select rating
Please do not post tabs as comments. Select "correction" instead!