Oops, an error
Loading. Please wait.

Barbie Girl Bass Tab

version 3
version 3

Whole song

Interactive

by MxPx
634 views 3 this week
no commentswrite comment
1 2 3 4 5
please rate
add to favorites
launch autoscroll
font size
0
reset
guitar tuner
Autoscroll
slow
fast
+/-
esc
set tempo
stop
Help us to improve Ultimate-Guitar.com Take our survey!
×
Difficulty
intermediate
intro x6
G-----------------------------------------------|
D-----------------------------------------------|
A-----------------------------------------------|
E---6-----2-----4------9---8--------------------|

G-----------------------------------------------|
D-----------------------------------------------|
A-----------------------------------------------|
E---6-----2-----4------9---8------6-------------|

verse x4
G-----------------------------------------------|
D-----------------------------------------------|
A-----------------------------------------------|
E---6666----2222---4444---99-88-----------------|

G-----------------------------------------------|
D-----------------------------------------------|
A-----------------------------------------------|
E---6------2------4------9---8------------------|

G--------------------------------------------------------------|
D--------------------------------------------------------------|
A--------------------------------------------------------------|
E---66666666------22222222------44444444------9999---8888------|(x4)

G-----------------------------------------------|
D-----------------------------------------------|
A-----------------------------------------------|
E---66-666666(x2)-------------------------------|

G-----------------------------------------------|
D-----------------------------------------------|
A-----------------6/12--------------------------|
E---66-666666-----------------------------------|

G-----------------------------------------------|
D-----------------------86---6------------------|
A--------------------------8----86--------------|
E---66-666666-----------------------8-----------|

G-----------------------------------------------|
D-----------------------------------------------|
A---4444------------4---------------------------|
E--------4444--6-6---4--6-----------------------|

G-----------------------------------------------|
D-----------------------------------------------|
A---4444----------------------------------------|
E--------4444--66--66---------------------------|

G-----------------------------------------------|
D-----------------------------------------------|
A---4444------------4---------------------------|
E--------4444--6-6---4--6-----------------------|

G-----------------------------------------------|
D-----------------------------------------------|
A-----------444-3-4-----------------------------|
E---4----6--------------------------------------|

G--------------------------------------------------------------|
D--------------------------------------------------------------|
A--------------------------------------------------------------|
E---66666666------22222222------44444444------9999---8888------|(x4)

G--------------------------------------------------------------|
D--------------------------------------------------------------|
A--------------------------------------------------------------|
E---2-2-2-2----4444----6---------------------------------------|


get fun!!!
comments
We did not receive enough feedback on this tab! Please rate:
print report bad tab
1 2 3 4 5
I want to post or [tab]
guest
You may want to rate the tab now too:
select rating
Please do not post tabs as comments. Select "correction" instead!