Oops, an error
Loading. Please wait.

Bass So Low Bass Tab

version 1
version 1

Whole song

by MxPx
1,585 views 1 this week
3 commentsread comments
1 2 3 4 5
worth learning
x 3
add to favorites
launch autoscroll
font size
0
reset
guitar tuner
Tab Pro tools
  • play this tab
  • loop segment
  • change instrument
  • show fretboard
  • metronome
Autoscroll
slow
fast
+/-
esc
set tempo
stop
Contributor
Difficulty
novice
Song: Bass so Low
Band: Mxpx
Tabbed by: Bass333
ok this is my first tab so i know its not that good..
played in standard tuning.
the whole song pretty much goes like this....
G|------------------------------------------------------|
D|------------------------------------------------------|
A|9-9-999-7-7---------------7-9-9-999-7-7---------------|
E|------------9-7-7-777-9-9---------------9-7-7-777-9-9-|


this is the second part of the intro where he plays on the top two strings of the 
not 100% accurate but u can figure out the rythem...

G|11-11-11-11-11-11-9--9-11-11-11-11-11-9-|
D|-------------------11-------------------|
A|----------------------------------------|
E|----------------------------------------|


----11-11-11-11-11-11-9--9-11-11-14-14-11-14|
11-9-------------------11-------------------|
--------------------------------------------|
--------------------------------------------|
comments
We did not receive enough feedback on this tab! Please rate:
print report bad tab
1 2 3 4 5
3 comments total.
0 reply
182pbass41 wrote on November 30 2007, 12:26 pm

the intro is actually

D|--------------------------|
G|-5-5-5--3-2-0-------------|

A|--------------3-3-3-5-5-5-|
E|--------------------------|

i watched him play it on a DVD.

0 reply
BassGuitar Hero wrote on November 28 2008, 11:01 pm

Well it sounds better on my bass to do it the way this tab says to, so I say you're wrong.

0 reply
basser92 wrote on December 11 2008, 11:32 pm

Well i i think he's right bc i have the dvd too so your the one thats wrong. if i knew how to post a tab i would do the right ver

I want to post or [tab]
guest
You may want to rate the tab now too:
select rating
Please do not post tabs as comments. Select "correction" instead!