Oops, an error
Loading. Please wait.

Bass So Low Bass Tab

version 2
version 2

Whole song

by MxPx
514 views 1 this week
2 commentsread comments
1 2 3 4 5
worth learning
x 4
add to favorites
launch autoscroll
font size
0
reset
guitar tuner
Tab Pro tools
  • play this tab
  • loop segment
  • change instrument
  • show fretboard
  • metronome
Autoscroll
slow
fast
+/-
esc
set tempo
stop
Contributor
Difficulty
intermediate
Band: MxPx
Song: “Bass So Low”
Album: Secret Weapon

   This song is not that hard to play. But everyone puts up wrong versions, so heres the 
one.

Intro:

G|--------------------------------|
D|-555-3-2-0----------------------|
A|-----------333-55---------------|
E|--------------------------------|

Verse:

G|--------------------------------------|
D|--------------------------------------|
A|-----5-4-000--------------------------|
E|-222---------6-5-4--------------------|

Pre Chorus:

G|-------------------------------------|
D|-------------------------------------|
A|------3333-6666-44-22----------------|
E|-2222--------------------------------|

Chorus:

G|--------------------------------|
D|-555-3-2-0----------------------|
A|-----------333-55---------------|
E|--------------------------------|
comments
print report bad tab
2 comments total.
0 reply
tatatotfolife wrote on December 26 2007, 02:06 pm

wheres the solo?

0 reply
BassGuitar Hero wrote on November 28 2008, 10:46 pm

This is a tab that is completely off, do not use it if you really want to learn this song.

I want to post or [tab]
guest
You may want to rate the tab now too:
select rating
Please do not post tabs as comments. Select "correction" instead!