Oops, an error
Loading. Please wait.

Bass So Low Bass Tab

version 3
version 3

Whole song

by MxPx
4,866 views 3 this week
2 commentsread comments
1 2 3 4 5
excellent!
x 6
add to favorites
launch autoscroll
font size
0
reset
guitar tuner
Tab Pro tools
  • play this tab
  • loop segment
  • change instrument
  • show fretboard
  • metronome
×
Best way to learn
"Bass So Low"
Autoscroll
slow
fast
+/-
esc
set tempo
stop
Contributor
Band: mxpx
Album: secret weapon
Song: bass so low

Please rate

Intro 1 (0:05) x4

G|----------------------------|
D|----------------------------|
A|9-9-999-7-7---------------7-| 
E|------------9-7-7-777-9-9---|

Intro 2

G|----------------------------|
D|----------------------------|
A|9-9-999-7-7---------------7-| x3
E|------------9-7-7-777-9-9---|

G|----------------------------|
D|----------------------------|
A|9-9-999-7-7-----------------| 
E|------------9-7-7-777-8--9~-|

Verse (0:33)

G|---------------------------------|
D|----------11-11---7--7-7-7-------| 
A|-9--9-9-9-------9----------7-7-9-| x4
E|---------------------------------|

Pre chorus (0:45)

G|------------------------------------------------------------------|
D|------------------------------------------------------------------| 
A|-------------------------------------------------5555555544444444-|
E|-222222222222222255555555555555550000000000000000-----------------|


Intro 2 (0:59)
Verse (1:13)
Pre-chorus (1:27)
Intro 1 (1:39) x4

Bridge 1 (1:53)

G|----------------------------------|
D|----------------------------------|
A|-9-9999995-555555--------7-777777-|
E|-----------------5-555555---------|

G|----------------------------------|
D|----------------------------------|
A|-9-9999995-555555-----------------|
E|-----------------5-5555550-000000-|

G|-----------------|
D|-----------------| 
A|-555---555---7-7-|
E|----555---555----|

G|------------------------------------|
D|------------------------------------| 
A|-9999999999999999-555-----555---7-7-|
E|----------------------555----555----|

G|-------------------------------------------------46666666-|
D|----------------------------------------------------------| 
A|-999999999999999955555555--------5555555544444444---------|
E|-------------------------22222222-------------------------|

G|---------77-----|
D|-----------77-7-|
A|-79-9-79--------|
E|----------------|

G|----------------|
D|----------------|
A|-79-9-79--------|
E|-----------22---|

G|---------77-----|
D|-----------77-7-|
A|-79-9-79--------|
E|----------------|

G|----------------|
D|----------------|
A|-79-9-79--------|
E|----------2-2-2-|


Intro 1 (2:40) x2

Bridge 2 (2:46) I hope I’ve got this bit correct…

G|-----------------------------------|
D|----6-67-6-67-79-10-979-7--7-------| 
A|-9-9---------------------9---9-7---|
E|---------------------------------9-|

G|------------------------------------|
D|----6-67-6-67-79-10-979-7--9-7-9-11-| 
A|-9-9----------------------7---------|
E|------------------------------------|

G|/11--1111-111111119----9--|
D|--------------------11----| 
A|--------------------------|
E|--------------------------|

G|/11--1111-111111119-------|
D|--------------------11-9--| 
A|--------------------------|
E|--------------------------|

G|/11--1111-111111119----9--|
D|--------------------11----| 
A|--------------------------|
E|--------------------------|

G|-11--11/14--14-11/14\-|
D|----------------------| 
A|----------------------|
E|----------------------|

Intro 1 (2:59) x4
Intro 2 (3:13)
comments
print report bad tab
2 comments total.
0 reply
hellbassist1 wrote on May 13 2008, 07:08 pm

5 stars pretty much perfect the only change i can see is the main riff is a bit more like this
G|------------------------------------------------------|
D|------------------------------------------------------|
A|9-9-999-7-8---------------x-9-9-999-7-7---------------|
E|------------9-7-7-777-9-9---------------9-7-7-777-9-9-|

and also the pre chorus is wrong well one note is anyway cange the 0's to 12's on the same string but give it a slide to or put it as 2nd on the D string ;)

0 reply
basser92 wrote on October 10 2009, 03:16 pm

THIS is the way its played on there dvd (i watched it tons of times)

G|-------------------------|
D|-4-4-4432----------2-----|
A|---------4-2-2-2234------|
E|-------------------------|
(the timing may not be right but i know the notes are)

I want to post or [tab]
guest
You may want to rate the tab now too:
select rating
Please do not post tabs as comments. Select "correction" instead!