Oops, an error
Loading. Please wait.

Best Of Times Tab

by MxPx
136 views 1 this week
1 commentread comment
1 2 3 4 5
please rate
add to favorites
launch autoscroll
font size
0
reset
how to read this tab
guitar tuner
Autoscroll
slow
fast
+/-
esc
set tempo
stop
Help us to improve Ultimate-Guitar.com Take our survey!
×
Author
-----------------------------------------------------------------------------
                             Best of Times - MXPX
-----------------------------------------------------------------------------
Tabbed by:Nofxmike
E-mail:N/A
Album: Plans Within Plans (2012)
Track: No.6
Chords used: D5, F#5, G5, A5, C#5, Em, A7, Bm, A,Gm7, G

Tuning:EADgbe

Intro:
Lead Fill 1a:

    D5              F#5               G5
e|---------------------------------------|
B|---------------------------------------|
G|--7-7-7-7-7-7-7-7-11-11-11-11-11-11-12-|
D|--x-x-x-x-x-x-x-x-x--x--x--x--x--x--x--|
A|--5-5-5-5-5-5-5-5-9--9--9--9--9--9--10-|
E|---------------------------------------|


     Verses:
                         Do you re-
    G5
e|--------------------------------|
B|--------------------------------|
G|--------------------------------|
D|--5---5--5-5-5---5---5--5-5-5---|
A|--5---5--5-5-5---5---5--5-5-5---|
E|--3---3--3-3-3---3---3--3-3-3---|
    PM throughout

    1)member?               Do you re-
    G5
e|--------------------------------|
B|--------------------------------|
G|--------------------------------|
D|--5---5--5-5-5---5---5--5-5-5---|
A|--5---5--5-5-5---5---5--5-5-5---|
E|--3---3--3-3-3---3---3--3-3-3---|
    PM throughout

    1)member 
    A5
e|--------------------------------|
B|--------------------------------|
G|--------------------------------|
D|--7---7--7-7-7---7---7--7-7-7---|
A|--7---7--7-7-7---7---7--7-7-7---|
E|--5---5--5-5-5---5---5--5-5-5---|
    PM throughout
                 1)golden leaves in No-
                 2)silverdale in De-
                 3)The summer sky in 
                 4)The summer's fly-
    A5
e|--------------------------------|
B|--------------------------------|
G|--------------------------------|
D|--7---7--7-7-7---7---7--7-7-7---|
A|--7---7--7-7-7---7---7--7-7-7---|
E|--5---5--5-5-5---5---5--5-5-5---|
    PM throughout

    1)vember?
    3)July?
    
Lead Fill 1a:

    D5              F#5               G5
e|---------------------------------------|
B|---------------------------------------|
G|--7-7-7-7-7-7-7-7-11-11-11-11-11-11-12-|
D|--x-x-x-x-x-x-x-x-x--x--x--x--x--x--x--|
A|--5-5-5-5-5-5-5-5-9--9--9--9--9--9--10-|
E|---------------------------------------|

SECOND TIME ONLY:
    2)cember?
    4)ing by?
    Lead Fill 1b:
    D5              F#5               
e|-----------------------------------|
B|-----------------------------------|
G|--7-7-7-7-7-7-7-7-11-11-11-11-11-11|
D|--x-x-x-x-x-x-x-x-x--x--x--x--x--x-|
A|--5-5-5-5-5-5-5-5-9--9--9--9--9--9-|
E|-----------------------------------|

Prechorus:

                 1)All that snow 
                 2)No summer job
    D5          
e|--------------------------------|
B|--------------------------------|
G|--7-----7-7---7-7-7-7-----7-7-7-|
D|--x-----x-x---x-x-x-x-----x-x-x-|
A|--5-----5-5---5-5-5-5-----5-5-5-|
E|--------------------------------|

     1)with  no place to go
     2)no transportation
    Lead Fill 2:
    D5          C#5   D5
e|--------------------------------|
B|--------------------------------|
G|--7-----7-7---6-6-6-7-----7-7---|
D|--x-----x-x---x-x-x-x-----x-x---|
A|--5-----5-5---4-4-4-5-----5-5---|
E|--------------------------------|

   (no vocals)
   Lead Fill 3: 
   D5    E5     D5             
e|--------------------------------|
B|--------------------------------|
G|-7---7/9--9---7-7---7---7-7---7-|
D|-x---x-x--x---x-x---x---x-x---x-|
A|-5---5/7--7---5-5---5---5-5---5-|
E|--------------------------------|

  1)Can't make practice,Can't go to a
  2)Crashing parties, no invita-
    D5                       F#5
e|-----------------------------------|
B|-----------------------------------|
G|--7-----7-7---7-7-7-7---7--11-11-11|
D|--x-----x-x---x-x-x-x---x--x--x--x-|
A|--5-----5-5---5-5-5-5---5--9--9--9-|
E|-----------------------------------|


   1)show
   2)tion
    E5                      G5
e|--------------------------------|
B|--------------------------------|
G|--9-----------------------12-12-|
D|--x-----------------------x--x--|
A|--7-----------------------10-10-|
E|--------------------------------|
                            ^  ^

NOTE: for second time: PM and "stab" each octave 
           1)The world has changed out- 
           2)Hitching rides and going nowhere
    F#5
e|-------------------------------------|
B|-------------------------------------|
G|--11----11-11---11-11-11-11-----11---|
D|--x-----x--x----x--x--x--x------x----|
A|--9-----9--9----9--9--9--9------9----|
E|-------------------------------------|

  1)side  my    win-     dow
  2)go-   ing   no-      where
    Lead Fill 4:
          E5             D5
e|----------------------------------|
B|----------------------------------|
G|--11----9-----9--------7-----7-7--|
D|--x-----x-----x--------x-----x-x--|
A|--9-----7-----7--------5-----5-5--|
E|----------------------------------|


    (No vocals)
     C#5   D5
e|-----------------|
B|-----------------|
G|---6-6-6-7-----7-|
D|---x-x-x-x-----x-|
A|---4-4-4-5-----5-|
E|-----------------|

        1)What will it be, where did we 
        2)Sneaking in-    to the county 
    D5                       F#5
e|-----------------------------------|
B|-----------------------------------|
G|--7-----7-7---7-7-7-7---7--11-11-11|
D|--x-----x-x---x-x-x-x---x--x--x--x-|
A|--5-----5-5---5-5-5-5---5--9--9--9-|
E|-----------------------------------|

   1)go?
   2)fair
    E5                      
e|-----------------------------------|
B|-----------------------------------|
G|--9-----9-9---9-9-9-9---9-9---9-9-9|
D|--x-----x-x---x-x-x-x---x-x---x-x-x|
A|--7-----7-7---7-7-7-7---7-7---7-7-7|
E|-----------------------------------|


Chorus/Refrain:

          1)I sat there in silence 
    Em                     A7
e|--0----------------------3------|
B|--0----------------------2------|
G|--0----------------------0------|
D|--2----------------------2------|
A|--2----------------------0------|
E|--0-----------------------------|

       1)All those memories crossed my mind    I
    Bm              A           Gm7    
e|---------------------|------------------------|
B|--3--------------2---|------------------------|
G|--4--------------2---|-------3----------------|
D|--4--------------2---|-------3---------X-X----|
A|--2--------------0---|-------5---------X-X----|
E|---------------------|-------3---------X-X----|


    love   life    now but     thosewerethe"Bestof
    G              A           G           A
e|--3------------------|-------3-----------------|
B|--0--------------2---|-------0-----------2-----|
G|--0--------------2---|-------0-----------2-----|
D|--0--------------2---|-------0-----------2-----|
A|--2--------------0---|-------2-----------0-----|
E|--3------------------|-------3-----------------|


    1)Times"
    Lead Fill 1a:
    D5              F#5               G5
e|---------------------------------------|
B|---------------------------------------|
G|--7-7-7-7-7-7-7-7-11-11-11-11-11-11-12-|
D|--x-x-x-x-x-x-x-x-x--x--x--x--x--x--x--|
A|--5-5-5-5-5-5-5-5-9--9--9--9--9--9--10-|
E|---------------------------------------|Go to verse#3


Play Chorus/Refrain(Repeat x1)

The end of the chorus/refrain is played like this

   1)Times                     I'm looking 
    D5              C#5               
e|---------------------------------------|
B|---------------------------------------|
G|--7-7-7-7-7-7-7-7-6--------------------|
D|--x-x-x-x-x-x-x-x-x--------------------|
A|--5-5-5-5-5-5-5-5-4--------------------|
E|---------------------------------------|


Bridge:

  1)forward                               to   better 
   Rhythm guitar:
   D5
e|-------------------------------------------------|
B|-------------------------------------------------|
G|-7------------------------7--7-------------------|
D|-7------------------------7--7-------------------|
A|-5------------------------5--5-------------------|
E|-------------------------------------------------|
   ^                        ^  ^

   Lead guitar:
   D(implied tonality)
e|-------------------------------------------------|
B|-------------------------------------------------|
G|-------------------------------------------------|
D|----4-----5--4-----4------------4-----5--4-----4-|
A|-5-----5--------5---------5--5-----5--------5----|
E|-------------------------------------------------|
   Heavy PM Throughout

   1)days                                In    modern    
   Rhythm Guitar:
   C#5
e|-------------------------------------------------|
B|-------------------------------------------------|
G|-6------------------------6--6-------------------|
D|-6------------------------6--6-------------------|
A|-4------------------------4--4-------------------|
E|-------------------------------------------------|
   ^                        ^  ^
   Lead Guitar:
   F#5(implied tonality)
e|-------------------------------------------------|
B|-------------------------------------------------|
G|----6-----7--6-----6------------6-----7--6-----6-|
D|-4-----4--------4---------4--4-----4--------4----|
A|-------------------------------------------------|
E|-------------------------------------------------|
   Heavy PM Throughout
   

   1)times                           with a whole new 
   D5
e|-------------------------------------------------|
B|-------------------------------------------------|
G|-7------------------------7--7-------------------|
D|-7------------------------7--7-------------------|
A|-5------------------------5--5-------------------|
E|-------------------------------------------------|
   ^                        ^  ^
   Lead Guitar:
   Dsus4(add9)
e|----------------------------------------------------|
B|----------------7---------------------------7-------|
G|----7-----7--------7---7--------7-----7--------7---7|
D|-5-----5-----5-------5----5--5-----5-----5-------5--|
A|----------------------------------------------------|
E|----------------------------------------------------|
   Heavy PM Throughout

   face                             2)Cause we're growing
   E5
e|----------------------------------------------------|
B|----------------------------------------------------|
G|-9------------------------9--9----------------------|
D|-9------------------------9--9----------------------|
A|-7------------------------7--7----------------------|
E|----------------------------------------------------|
   ^                        ^  ^
   Lead Guitar:
   Dmaj7(implied tonality)
e|----------------------------------------------------|
B|----------------------------------------------------|
G|----6-----6-----7--6----6-------6-----6-----7--6---6|
D|-6-----6-----6--------6---6--6-----6-----6-------6--|
A|----------------------------------------------------|
E|----------------------------------------------------|
   Heavy PM Throughout


Bridge#2:

    2)  up            and all         that it 
    Rhythm Guitar:
    D5                            
e|---------------------------------------------|
B|---------------------------------------------|
G|--7-7-7-7-7-7-7-7-7-7-7-7-7-7-7-7-7-7-7-7-7-7|
D|--x-x-x-x-x-x-x-x-x-x-x-x-x-x-x-x-x-x-x-x-x-x|
A|--5-5-5-5-5-5-5-5-5-5-5-5-5-5-5-5-5-5-5-5-5-5|
E|---------------------------------------------|


    Lead guitar:
    D5                    F#5         E5                    
e|---------------------------------------------|
B|---------------------------------------------|
G|--7---------------------11----------9--------|
D|--x---------------------x-----------x--------|
A|--5---------------------9-----------7--------|
E|---------------------------------------------|


    2)takes                    Is looking forward
    Rhythm guitar:
    C#5
e|----------------------------------------------|
B|----------------------------------------------|
G|--6-6-6-6-6-6-6-6-6-6-6-6-6-6-6-6-6-6-6-6-6-6-|
D|--x-x-x-x-x-x-x-x-x-x-x-x-x-x-x-x-x-x-x-x-x-x-|
A|--4-4-4-4-4-4-4-4-4-4-4-4-4-4-4-4-4-4-4-4-4-4-|
E|----------------------------------------------|

    Lead Guitar:
    C#5                   F#5         E5
e|----------------------------------------------|
B|----------------------------------------------|
G|--6---------------------11----------9---------|
D|--x---------------------x-----------x---------|
A|--4---------------------9-----------7---------|
E|----------------------------------------------|

     2)to better days
    Rhythm Guitar:
    D5                            
e|---------------------------------------------|
B|---------------------------------------------|
G|--7-7-7-7-7-7-7-7-7-7-7-7-7-7-7-7-7-7-7-7-7-7|
D|--x-x-x-x-x-x-x-x-x-x-x-x-x-x-x-x-x-x-x-x-x-x|
A|--5-5-5-5-5-5-5-5-5-5-5-5-5-5-5-5-5-5-5-5-5-5|
E|---------------------------------------------|


    Lead guitar:
    D5                    C#5         D5                    
e|---------------------------------------------|
B|---------------------------------------------|
G|--7---------------------6-----------7--------|
D|--x---------------------x-----------x--------|
A|--5---------------------4-----------5--------|
E|---------------------------------------------| 



                        3)cuz I'm looking forward
    Rhythm Guitar:
    E5                            
e|---------------------------------------------|
B|---------------------------------------------|
G|--9-9-9-9-9-9-9-9-9-9-9-9-9-9-9-9-9-9-9-9-9-9|
D|--x-x-x-x-x-x-x-x-x-x-x-x-x-x-x-x-x-x-x-x-x-x|
A|--7-7-7-7-7-7-7-7-7-7-7-7-7-7-7-7-7-7-7-7-7-7|
E|---------------------------------------------|


    Lead guitar:
    E5                    F#5         G5                    
e|---------------------------------------------|
B|---------------------------------------------|
G|--9---------------------11----------12-------|
D|--x---------------------x-----------x--------|
A|--7---------------------9-----------10-------|
E|---------------------------------------------|Repeat Bridge#2 x2

Repeat Chorus/Refrain x2

  End chorus like this: 

   2)times"
    D5                             
e|---------------------------------------|
B|---------------------------------------|
G|--7-7-7-7-7-7-7-7-7\-------------------|
D|--x-x-x-x-x-x-x-x-7--------------------|
A|--5-5-5-5-5-5-5-5-5\-------------------|
E|---------------------------------------|          
               



************************************
| ^   accent/stab this chord
| /   slide up
| \   slide down
| h   hammer-on
| p   pull-off
| ~   vibrato
| +   harmonic
| x   Mute note
| b   Bend
| pb  Pre-bend
| br  Bend release
| pbr Pre-bend release
| brb Bend release bend

************************************
Suggest correction
Give kudos to tab author, rate the tab!
1 2 3 4 5
comments
print report bad tab
1 comment total.
0 reply
NoFxMIke 502 wrote on October 3 2012, 08:17 am

Apologies. This part should read like this instead:

Dsus4(add9)
e|----------------------------------------------------|
B|----------------5---------------------------5-------|
G|----7-----7--------7---7--------7-----7--------7---7|
D|-5-----5-----5-------5----5--5-----5-----5-------5--|
A|----------------------------------------------------|
E|----------------------------------------------------|

guest
You may want to rate the tab now too:
select rating
Please do not post tabs as comments. Select "correction" instead!