Oops, an error
Loading. Please wait.

Blue Moon Bass Tab

by MxPx
1,329 views 9 this week
no commentswrite comment
1 2 3 4 5
2 more votes to show rating
add to favorites
launch autoscroll
font size
0
reset
guitar tuner
Autoscroll
slow
fast
+/-
esc
set tempo
stop
Help us to improve Ultimate-Guitar.com Take our survey!
×
Song: Blue Moon
Band: MxPx
Tabbed By: Kurt   wsu182@hotmail.com


Intro:
G------------------------------
D------4-----------------------
A-5­7---------4-5------------4-    X1
E----------7--------0--7--5----

G-------------------------------
D------4------------------------
A-5­7---------4-5-------------4-    X2
E---------7--------0--7--5--3---

G----------------
D----------------
A-5-----------5--    X1
E----5--3-2-0----

Verses
G----------------------------------------
D----------------------------------------
A-55555555­22222222----------------------   X3
E--------------------000000000­55555555--

G-----------------------------------------
D-----------------------------------------
A-55555555­---------55555555--------------   X1
E-----------33333333---------55555555-----

Bridge
G--------------------------------
D--------------------------------
A----------------------55555555--   X2
E--33333333--55555555------------

G------------------------------------------------------
D------------------------------------------------------
A---------------------88888888-------------------------   X1
E--33333333­66666666--------------555555­00000000­555555

Then do the verse twice again to end it.
Suggest correction
Give kudos to tab author, rate the tab!
1 2 3 4 5
comments
print report bad tab
guest
You may want to rate the tab now too:
select rating
Wanna post a correction for this tab? Suggest correction