Oops, an error
Loading. Please wait.

Brokenhearted Tab

by MxPx
2,468 views 1 this week
no commentswrite comment
1 2 3 4 5
excellent!
x 6
add to favorites
launch autoscroll
font size
0
reset
how to read this tab
guitar tuner
Autoscroll
slow
fast
+/-
esc
set tempo
stop
Help us to improve Ultimate-Guitar.com Take our survey!
×
Author
Intro/Verse 
|------------------------------------------------|
|------------------------------------------------|
|--55555555--------------------------------------|
|--55555555--22222222--33333333-----6666---------| x2
|--33333333--22222222--33333333-----6666---------|
|------------00000000--11111111-----4444---------|
pm.............................

Prechorus
|------------------------------------------------|
|------------------------------------------------|
|--5555------7777-------55555-xx-xx--------------|
|--5555-7777-7777-33-55-55555-xx-xx--------------|
|--3333-7777-5555-33-55-33333-xx-xx--------------|
|-------5555------11-33--------------------------|

Chorus
|------------------------------------------------|
|------------------------------------------------|
|-------5555-----------------5555----------------|
|--3333-5555-5555-7777--3333-5555-5-xx-xx-55555--| x2
|--3333-3333-5555-7777--3333-3333-5-xx-xx-55555--|
|--1111------3333-5555--1111------3-xx-xx-33333--|

Bridge
|-----------------------------------|
|-----------------------------------|
|-5~--------------------------------|
|-5~--------------------66666-------|
|-3~--------------------66666-------|
|-----------------------44444-------|

Verse
|------------------------------------------------|
|------------------------------------------------|
|--55555555--------------------------------------|
|--55555555--22222222--33333333-----6666---------| x2
|--33333333--22222222--33333333-----6666---------|
|------------00000000--11111111-----4444---------|

Outro
|------------------------------------------------|
|------------------------------------------------|
|--5555------7777-------5555------7777-----------|
|--5555-7777-7777-33-55-5555-7777-7777-33-55-----|
|--3333-7777-5555-33-55-3333-7777-5555-33-55-----|
|-------5555------11-33------5555------11-33-----|

|------------------------------------------------|
|------------------------------------------------|
|--5555------------------------------------------|
|--5555-2222-3333--5555--------------------------| x4
|--3333-2222-3333--5555--------------------------|
|-------0000-1111--3333--------------------------|

|----------------------|
|----------------------|
|--55555---------------|
|--55555---------------|
|--33333---------------|
|----------------------|
Suggest correction
comments
print report bad tab
guest
You may want to rate the tab now too:
select rating
Wanna post a correction for this tab? Suggest correction