Oops, an error
Loading. Please wait.

Cast Down My Heart Tab

by MxPx
36 views 1 this week
no commentswrite comment
1 2 3 4 5
please rate
add to favorites
launch autoscroll
font size
0
reset
how to read this tab
guitar tuner
Tab Pro tools
  • play this tab
  • loop segment
  • change instrument
  • show fretboard
  • metronome
×
Best way to learn
"Cast Down My Heart"
Autoscroll
slow
fast
+/-
esc
set tempo
stop
Contributor
Difficulty
MxPx - Cast Down My Heart

Tabbed By: SpreadSomeLove
Standard Tuning

RHYTHM GUITAR

Intro
e|--------------------------------|
B|--------------------------------|
G|7-7-777-7-7-777-7-7-777-7-7-777-|
D|7-7-777-7-7-777-7-7-777-7-7-777-|
A|5-5-555-5-5-555-5-5-555-5-5-555-|
E|--------------------------------|

Verse
e|----------------------------------------------------------------|
B|----------------------------------------------------------------|
G|--------------------------------7-7-777-7-7-777-7-7-777-7-7-777-|
D|7-7-777-7-7-777-4-4-444-4-4-444-7-7-777-7-7-777-7-7-777-7-7-777-|
A|7-7-777-7-7-777-4-4-444-4-4-444-5-5-555-5-5-555-5-5-555-5-5-555-|
E|5-5-555-5-5-555-2-2-222-2-2-222---------------------------------|

e|----------------------------------------------------------------|
B|----------------------------------------------------------------|
G|----------------------------------------------------------------|
D|7-7-777-7-7-777-4-4-444-4-4-444-2-2-222-2-2-222-2-2-222-2-2-222-|
A|7-7-777-7-7-777-4-4-444-4-4-444-2-2-222-2-2-222-2-2-222-2-2-222-|
E|5-5-555-5-5-555-2-2-222-2-2-222-0-0-000-0-0-000-0-0-000-0-0-000-|
PM                                  . ... . . ... . . ... . . ... 

Pre-Chorus
e|-------------------|
B|-------------------|
G|7---7---7----------|
D|7---7---7----------|
A|5---5---5----------|
E|-------------------|

Chorus
e|----------------------------------------------------------------|
B|----------------------------------------------------------------|
G|--------------------------------7-7-7-7-7-7-7-7-7-7-7-7-7-7-7-7-|
D|7-7-7-7-7-7-7-7-4-4-4-4-4-4-4-4-7-7-7-7-7-7-7-7-7-7-7-7-7-7-7-7-| 2x
A|7-7-7-7-7-7-7-7-4-4-4-4-4-4-4-4-5-5-5-5-5-5-5-5-5-5-5-5-5-5-5-5-|
E|5-5-5-5-5-5-5-5-2-2-2-2-2-2-2-2---------------------------------|

Solo
e|----------------------------------------------------------------|
B|----------------------------------------------------------------|
G|--------------------------------7-7-7-7-7-7-7-7-9-9-9-9-9-9-9-9-|
D|7-7-7-7-7-7-7-7-4-4-4-4-4-4-4-4-7-7-7-7-7-7-7-7-9-9-9-9-9-9-9-9-| 
A|7-7-7-7-7-7-7-7-4-4-4-4-4-4-4-4-5-5-5-5-5-5-5-5-7-7-7-7-7-7-7-7-|
E|5-5-5-5-5-5-5-5-2-2-2-2-2-2-2-2---------------------------------|

Repeat Verse

Chorus II
e|----------------------------------------------------------------|
B|----------------------------------------------------------------|
G|--------------------------------7-7-7-7-7-7-7-7-7-7-7-7-7-7-7-7-|
D|7-7-7-7-7-7-7-7-4-4-4-4-4-4-4-4-7-7-7-7-7-7-7-7-7-7-7-7-7-7-7-7-|
A|7-7-7-7-7-7-7-7-4-4-4-4-4-4-4-4-5-5-5-5-5-5-5-5-5-5-5-5-5-5-5-5-|
E|5-5-5-5-5-5-5-5-2-2-2-2-2-2-2-2---------------------------------|

e|--------------------------------------------------------------|
B|--------------------------------------------------------------|
G|--------------------------------7-7-7-7-7-7-7-7-7-7-7-7-------|
D|7-7-7-7-7-7-7-7-4-4-4-4-4-4-4-4-7-7-7-7-7-7-7-7-7-7-7-7-7--6--|
A|7-7-7-7-7-7-7-7-4-4-4-4-4-4-4-4-5-5-5-5-5-5-5-5-5-5-5-5-7--7--|
E|5-5-5-5-5-5-5-5-2-2-2-2-2-2-2-2-------------------------5--4--|

Bridge
e|------------------------------------------------------------------|
B|------------------------------------------------------------------|
G|---------7-----------------7--------------------------------------|
D|4--------7--------4--------7--------7-7-7-7-7-7-7-7-7-7-7-7-7--6--|
A|4--------5--------4--------5--------7-7-7-7-7-7-7-7-7-7-7-7-7--7--|
E|2-----------------2-----------------5-5-5-5-5-5-5-5-5-5-5-5-5--4--|

e|--------------------------------------------------------------------|
B|--------------------------------------------------------------------|
G|---------7-----------------7----------------------------------------|
D|4--------7--------4--------7--------7-7-7-7-7-7-7-7-7-7-7-7-7-7-7-7-|
A|4--------5--------4--------5--------7-7-7-7-7-7-7-7-7-7-7-7-7-7-7-7-|
E|2-----------------2-----------------5-5-5-5-5-5-5-5-5-5-5-5-5-5-5-5-|

e|----------------------------------|
B|----------------------------------|
G|6-s-4------------6-s-4------------|
D|6-s-4------------6-s-4------------|
A|4-s-2------------4-s-2------------|
E|----------------------------------|

Solo II
e|----------------------------------------------------------------|
B|----------------------------------------------------------------|
G|--------------------------------7-7-777-7-7-777-7-7-777-7-7-777-|
D|7-7-777-7-7-777-4-4-444-4-4-444-7-7-777-7-7-777-7-7-777-7-7-777-|
A|7-7-777-7-7-777-4-4-444-4-4-444-5-5-555-5-5-555-5-5-555-5-5-555-|
E|5-5-555-5-5-555-2-2-222-2-2-222---------------------------------|

e|---------------------------------------------------------|
B|---------------------------------------------------------|
G|--------------------------------7-7-777-7-7-777-7--------|
D|7-7-777-7-7-777-4-4-444-4-4-444-7-7-777-7-7-777-7--------|
A|7-7-777-7-7-777-4-4-444-4-4-444-5-5-555-5-5-555-5--------|
E|5-5-555-5-5-555-2-2-222-2-2-222--------------------------|

Final Chorus
e|----------------------------------------------------------------|
B|----------------------------------------------------------------|
G|--------------------------------7-7-7-7-7-7-7-7-7-7-7-7-7-7-7-7-|
D|7-7-7-7-7-7-7-7-4-4-4-4-4-4-4-4-7-7-7-7-7-7-7-7-7-7-7-7-7-7-7-7-|
A|7-7-7-7-7-7-7-7-4-4-4-4-4-4-4-4-5-5-5-5-5-5-5-5-5-5-5-5-5-5-5-5-|
E|5-5-5-5-5-5-5-5-2-2-2-2-2-2-2-2---------------------------------|

e|--------------------------------------------------|
B|--------------------------------------------------|
G|--------------------------------7---7---7---------|
D|7-7-7-7-7-7-7-7-4-4-4-4-4-4-4-4-7---7---7---------|
A|7-7-7-7-7-7-7-7-4-4-4-4-4-4-4-4-5---5---5---------|
E|5-5-5-5-5-5-5-5-2-2-2-2-2-2-2-2-------------------|

________________________________________________________________________

LEAD PARTS

Chorus I & II
e|--------------------------------------------------------|
B|--------------------------------------------------------|
G|--------------------------------------------------------|
D|----7-----7---------7-----7---------7-----7-------------|
A|7h9---7h9-------7h9---7h9-------7h9---7h9-------9-------|
E|------------7h9-------------7h9-------------7h9---------|

e|---------------------------------------------------|
B|---------------------------------------------------|
G|---------------------------------------------------|
D|----7-----7---------7-----7-------------7----------|
A|7h9---7h9-------7h9---7h9-------7---9--------------|
E|------------7h9-------------7h9--------------------|

Solo
e|-----------------------------------------------9------------|
B|-----------------------------------------10s12-12b--10p7-10-|
G|9b--9---6---------6h9-7---9---9s11--9h11--------------------|
D|-----------7--7h9-------------------------------------------|
A|------------------------------------------------------------|
E|------------------------------------------------------------|

Solo II
e|------------------------------------------------|
B|------------------------------------------------|
G|------------------------------------------------|
D|------------------------------------------------| 2x
A|7s9---7---4-----------4h7-5---7---7s9--9--------|
E|-------------5----5h7---------------------------|

Final Chorus
e|----------------------------------------------------------|
B|----------------------------------------------------------|
G|6h7-9-6h7-9-----6h7-9-6h7-9-----6h7-9-6h7-9-11s9----------|
D|------------7h9-------------7h9------------------7--------|
A|----------------------------------------------------------|
E|----------------------------------------------------------|

e|---------------------------------------------------|
B|----------------------------------------10---------|
G|6h7-9-6h7-9-----6h7-9-6h7-9-----6---7--------------|
D|------------7h9-------------7h9--------------------|
A|---------------------------------------------------|
E|---------------------------------------------------|


************************************

| s   Slide
| h   Hammer-on
| p   Pull-off
| b   Bend
| PM. Palm Mute

************************************

That's about it. Please rate and comment!
comments
We did not receive enough feedback on this tab! Please rate:
print report bad tab
1 2 3 4 5
I want to post or [tab]
guest
You may want to rate the tab now too:
select rating
Please do not post tabs as comments. Select "correction" instead!